Search tabs:
Browse artists: 0-9 | A | B | C | D | E | F | G | H | I | J | K | L | M | N | O | P | Q | R | S | T | U | V | W | X | Y | Z
/ Sugarcult / Start Static (2001) / Saying Goodbye bass tab

Song: saying goodbye
Band: sugarcult
Album: sugarcult
Tabbed by: doodle (Luis Vera)

Easy tab. This sounds almost perfect I'd say 90% perfect. I'm not completely sure on the 7 slide 3 part. Any questions email me at doodle777_98@yahoo.com. (need a bass player in the Kingsville or San Antonio area of Texas email me.)

Intro/verse :
G|-----------------------------|
D|-----------------------------|
A|-----0h3-3-0h1-1-------------| x5
E|--11-------------6-5-6-5-----|

G|-----------------------------|
D|-----------------------------|
A|-----0h3-3-0h1-1---5--3------| x1
E|--11-------------------------|

G|-----------------------------|
D|-----------------------------|
A|-----0h3-3-0h1-1-------------| x1
E|--11-------------6-5-6-5-----|

G|-----------------------------|
D|-----------------------------|
A|-----0h3-3-0h1-7\\3-----------| x1
E|--11-------------------------|

chorus:
G|-----------------------------------|
D|-----------------------------------|
A|---3-3-3-3-5-5-5-5-1-1-1-1-1-1-1-1-|
E|-----------------------------------| x4

verse:
G|-----------------------------|
D|-----------------------------|
A|-----0h3-3-0h1-1-------------| x4
E|--11-------------6-5-6-5-----|

breakdown:
G|-------------------------|
D|-------------------------|
A|---3----5-----1----------|x4
E|-------------------------|

G|------------------------------------|
D|------------------------------------|
A|-----0h1---0h1--3------0h1---3-1----| x1
E|--11-----1-------1-0-1-----1--------|

chorus x4
then verse x5
outro:
G|-----------------------|
D|-----------------------|
A|-------3---1(let ring)-|x1
E|---1-------------------|


Sugarcult albums
2004 Palm Trees and Power Lines
2001 Start Static
Start Static tabs
01You're the One tabbass tab
02Stuck in America tabbass tab
03Hate Every Beautiful Day tabbass tab
04Bouncing off the Walls tabbass tab
05Saying Goodbye tabbass tab
06Daddy's Little Defect tabbass tab
07Lost in You tabbass tab
08Pretty Girl (The Way I Love You) tabbass tab
09Crashing Down tabbass tab
10How Does It Feel tabbass tab
11I Changed My Name tabbass tab

 

1