Search tabs:
Browse artists: 0-9 | A | B | C | D | E | F | G | H | I | J | K | L | M | N | O | P | Q | R | S | T | U | V | W | X | Y | Z
/ Sugarcult / Start Static (2001) / Stuck in America bass tab

Band: Sugarcult
Song: Stuck In America
Tabbed By: Mike Wojo

Standard Tuning

Intro

G-------------------
D-------------------    X2
A--1----------6-----
E-------1----------3

G---------
D---------
A---0-1---
E---------

Intro 2

G-----------------
D-----------------     x2
A-1----66-66------
E---11------------

Verse

G----------------------------
D----------------------------   X2
A-111------------333---------
E--------111------------666-6

Pre-Chorus

G-----------------
D-----------------   X2
A-1111----33336666
E-----1111--------

G----------
D----------
A-1-------6
E---111-1--

Chorus

G---------------------------------
D---------------------------------   X2
A-11111111--------3333333366666666
E---------11111111----------------

Bridge

G-----------------------------
D-----------------------------
A-111----111----111----111/333
E-----------------------------

Order:

Intro
Intro 2
Verse
Pre-Chorus
Chorus
Intro 2
Verse
Pre-Chorus
Chorus
Bridge
-Break-
Chorus
Intro 2
Intro
_____
|End|: A--66--


Sugarcult albums
2004 Palm Trees and Power Lines
2001 Start Static
Start Static tabs
01You're the One tabbass tab
02Stuck in America tabbass tab
03Hate Every Beautiful Day tabbass tab
04Bouncing off the Walls tabbass tab
05Saying Goodbye tabbass tab
06Daddy's Little Defect tabbass tab
07Lost in You tabbass tab
08Pretty Girl (The Way I Love You) tabbass tab
09Crashing Down tabbass tab
10How Does It Feel tabbass tab
11I Changed My Name tabbass tab

 

1