Search tabs:
Browse artists: 0-9 | A | B | C | D | E | F | G | H | I | J | K | L | M | N | O | P | Q | R | S | T | U | V | W | X | Y | Z
/ Sugarcult / Start Static (2001) / You're the One bass tab

Band:Sugarcult
Song:You're The One
Album:Start Static

Tabbed by Kyle Gayne

Intro(bass enters at 0:11)
G:----|----------|  |----------|
D:----|----------|  |----------|
A:----|----------|x7|----------|x1
E:-1/-|-77765556-|  |-7--------|

Verse
G:----------------------------------|
D:----------------------------------|
A:----------------------------------|x2
E:-777655567776555677765556---------|

Pre Chorus
G:----------------------------------|
D:----------------------------------|
A:-9-7------------------------------|x2
E:-----7---1/7-----1/7-----1/7------|

Chorus 1
G:-----------------------------------------------|
D:-----------------------------------------------|
A:-9-7--------------------------------------9-7--|x1
E:-----77777777222222223333333366665555----------|

Verse

Pre Chorus

Chorus 2
G:-------------------------------------------------------|
D:-------------------------------------------------------|
A:-9-7----------------------------------------------9-7--|x1
E:-----7777777722222222333333336666555566665555----------|

Bridge
G:----------|  |----------|
D:----------|  |----------|
A:----------|x7|----------|x1
E:-77765556-|  |-7--------|

Chorus 3
G:--------------------------------------|
D:--------------------------------------|
A:-9-7----------------------------------|x1
E:-----77777777222222223333333366665555-|

G:---------------------------------------------------|
D:---------------------------------------------------|
A:----------------------------------------------9-7--|x1
E:-7777777722222222333333336666555566665555----------|

Outro
G:--------------------------------------------|
D:--------------------------------------------|
A:--------------------------------------------|x1
E:-----------------777655567776555677765556\\1-|


Sugarcult albums
2004 Palm Trees and Power Lines
2001 Start Static
Start Static tabs
01You're the One tabbass tab
02Stuck in America tabbass tab
03Hate Every Beautiful Day tabbass tab
04Bouncing off the Walls tabbass tab
05Saying Goodbye tabbass tab
06Daddy's Little Defect tabbass tab
07Lost in You tabbass tab
08Pretty Girl (The Way I Love You) tabbass tab
09Crashing Down tabbass tab
10How Does It Feel tabbass tab
11I Changed My Name tabbass tab

 

1