Search tabs:
Browse artists: 0-9 | A | B | C | D | E | F | G | H | I | J | K | L | M | N | O | P | Q | R | S | T | U | V | W | X | Y | Z
/ / / guitar tab

I tabbed the Intro and Verse but my tabbing program doesn't work too well w/ MXtabs so if anyone has one that they can send me, thanks
|---------------------------------------|
|-----3-3-------------------------------|
|-----2-2-5-5-5-5-----------------------|
|-0-0-0-0-5-5-5-5-3-3-3-3-5-5-5---------|
|-0-0-0-0-3-3-3-3-3-3-3-3-5-5-5---------|
|-0-0-0-0---------3-3-3-3-5-5-5-3~------|

Last repeat of chorus goes like this
|-------------------------------------|
|-3-3-3-3-----------------------------|
|-2-2-2-2-5-5-5-5---------------------|
|-0-0-0-0-5-5-5-5-5-5-5-3-3-----------|
|-0-0-0-0-3-3-3-3-5-5-5-3-3-----------|
|-0-0-0-0---------5-5-5-3-3-----------|
pm.......

Riff in Verse 2
|---------------------------------------|
|---------6h8p6-5h6p5-6p5---------------|
|-5h7-5h7-----------------5-----5---5-7-|
|---------------------------5h7---7-----|
|---------------------------------------|
|---------------------------------------|


albums
tabs

 

1