Search tabs:
Browse artists: 0-9 | A | B | C | D | E | F | G | H | I | J | K | L | M | N | O | P | Q | R | S | T | U | V | W | X | Y | Z
/ / / guitar tab

Artist: 12 Stones
 Song: Shadows
 Album: Potter's Field


 Intro/Interlude (with wah pedal)
 |-----------------------------------------------------------------------------------------------
 |-----------------------------------------------------------------------------------------------
 |-------7--7-------7--7-----5-------------------------------------------------------------------
 |-0-0-0------0-0-0------------------------------------------------------------------------------
 |-0-0-0-5--5-0-0-0-5--5-----3-------------------------------------------------------------------
 |-0-0-0------0-0-0------0-0---------------------------------------------------------------------

 Verse (not sure if hes playing different notes or just using pedals, but its close enough)
 |-----------------------------------------------------------------------------------------------
 |----------------3-1---------------0h1-0--------------------------------------------------------
 |---2---2---2----------2---2---2----------------------------------------------------------------
 |-0---0---0---0------0---0---0---0--------------------------------------------------------------
 |-----------------------------------------------------------------------------------------------
 |-----------------------------------------------------------------------------------------------

 Pre Chourus
 |-----------------------------------------------------------------------------------------------
 |-----------------------------------------------------------------------------------------------
 |-7--7-7-7--7-5--5-5-5--------------------------------------------------------------------------
 |-7--7-7-7--7-5--5-5-5-3--3-3-3-3-5--5-5--------------------------------------------------------
 |-5--5-5-5--5-3--3-3-3-3--3-3-3-3-5--5-5--------------------------------------------------------
 |----------------------3--3-3-3-3-5--5-5--------------------------------------------------------

Chorus
 |-----------------------------------------------------------------------------------------------
 |-----------------------------------------------------------------------------------------------
 |-----------------------------------------------------------------------------------------------
 |-0--0-0--0-0-0-0-3--3-3-3-5-5-5----------------------------------------------------------------
 |-0--0-0--0-0-0-0-3--3-3-3-5-5-5----------------------------------------------------------------
 |-0--0-0--0-0-0-0-3--3-3-3-5-5-5----------------------------------------------------------------

not sure how accurate the verse is, but if you play along with the album it sounds pretty good.


albums
tabs

 

1