Search tabs:
Browse artists: 0-9 | A | B | C | D | E | F | G | H | I | J | K | L | M | N | O | P | Q | R | S | T | U | V | W | X | Y | Z
/ 311 / Don't Tread on Me (2005) / Frolic Room guitar tab

"Frolic Room" by: 311

Lyrics by: Nick Hexum
Music by: Nick Hexum, Tim Mahoney, Chad Sexton, Aaron Wills

Tabbed by: Chris Gill
Email: CGill1403@aol.com

Tuning: E A D G B e

This is one of the new demos of off their upcoming album "Don't Tread On Me"

Enjoy


e|-------------------------------------------------------------------|
B|-------------------------------------------------------------------|
G|--9-9-9-9-9-9-9-9---------6-6-6-6-----------------8-8-8-8----------|
D|------------------7-7-7-7---------9-9-9-9-9-9-9-9---------7-7-7-7--| x2
A|-------------------------------------------------------------------|
E|-------------------------------------------------------------------|
PM...................................................................

There's a gravity in me, pulling me to want to see
What is going on tonight, funny thing electric starlight
I like to mix with walks of life, who live life on the other side
Pulling muscles from the shelf, a place to some that looks like hell
Oh, classic song that the jukebox is on has me grovin'
Oh, the faces here make it so surreal
e|-------------------------------------------------------------------|
B|-------------------------------------------------------------------|
G|--9-9-9-9-9-9-9-9---------6-6-6-6-----------------8-8-8-8----------|
D|------------------7-7-7-7---------9-9-9-9-9-9-9-9---------7-7-7-7--| x2
A|-------------------------------------------------------------------|
E|-------------------------------------------------------------------|
PM...................................................................

Oh, in the company of petty hurts and near vagrants
One drink away from sleeping on the pavement
I've not wondered what I find so appealing
About the happy hours dealing
e|---------------------------------------------------------------------------|
B|---------------------------------------------------------------------------|
G|---------------------------------------------------------------------------|
D|--2--4--4--4--x-4--6--6--6--x-6--7--7--7--x-7--9--9--9--x------------------| x4
A|--2--4--4--4--x-4--6--6--6--x-6--7--7--7--x-7--9--9--9--x------------------|
E|--0--2--2--2--x-2--4--4--4--x-4--5--5--5--x-5--7--7--7--x------------------|

A party, after party, cuz it started to get grading
Another, and another, what are we celebrating
e|---------------------------------------------------------|
B|---------------------------------------------------------|
G|---------------------------------------------------------|
D|--2---2-----------6---6-----------7---7-----------9---9--| x2
A|--2---2-----------6---6-----------7---7-----------9---9--|
E|--0---0-----------4---4-----------5---5-----------7---7--|

There's always something not to miss
Diving back in the abyss
And it gets so very stale
But tomorrow's a new tale
e|-----------------------------------------------------------------|
B|-----------------------------------------------------------------|
G|-----------------------------------------------------------------|
D|--2---2---2---2---6---6---6---6---7---7---7---7---9---9---9---9--| x2
A|--2---2---2---2---6---6---6---6---7---7---7---7---9---9---9---9--|
E|--0---0---0---0---4---4---4---4---5---5---5---5---7---7---7---7--|

The frolic room
Whoa, the seed I have sewn
Yeah, and I'm drunk to the night
And it's kept me alive, yeah
e|---------------------------------------------------------------|
B|---------------------------------------------------------------|
G|---------------------------------------------------------------|
D|--9---9---9---9---7---7---7---7---6---6---4---2-----2---2---2--| x4
A|--9---9---9---9---7---7---7---7---6---6---4---2-----2---2---2--|
E|--7---7---7---7---5---5---5---5---4---4---2---0-----0---0---0--|

e|---------------|
B|---------------|
G|---------------|
D|--6----7----2--|
A|--6----7----2--|
E|--4----5----0--|

e|----------------------------------------------------------|
B|--9---7---------------------------------------------------|
G|----------9-----------------------------------------------|
D|----------------8-10-11-11-8-10-11-11-8-10-11-9--8--6-----| x2
A|-------------------------------------------------------7--|
E|----------------------------------------------------------|

e|-------------------------------------------------------------------|
B|-------------------------------------------------------------------|
G|--9-9-9-9-9-9-9-9---------6-6-6-6-----------------8-8-8-8----------|
D|------------------7-7-7-7---------9-9-9-9-9-9-9-9---------7-7-7-7--| x4
A|-------------------------------------------------------------------|
E|-------------------------------------------------------------------|
PM...................................................................

Oh, in the company of the privileged and the nearly damned
Fixing like a cocktail of pure spirit slammed
In the danger zone is where you'll find me
In the certain dive so inviting
e|---------------------------------------------------------------------------|
B|---------------------------------------------------------------------------|
G|---------------------------------------------------------------------------|
D|--2--4--4--4--x-4--6--6--6--x-6--7--7--7--x-7--9--9--9--x------------------| x4
A|--2--4--4--4--x-4--6--6--6--x-6--7--7--7--x-7--9--9--9--x------------------|
E|--0--2--2--2--x-2--4--4--4--x-4--5--5--5--x-5--7--7--7--x------------------|

A party, after party, cuz it started to get grading
Another, and another, what are we celebrating
e|---------------------------------------------------------|
B|---------------------------------------------------------|
G|---------------------------------------------------------|
D|--2---2-----------6---6-----------7---7-----------9---9--| x2
A|--2---2-----------6---6-----------7---7-----------9---9--|
E|--0---0-----------4---4-----------5---5-----------7---7--|

There's always something not to miss
Diving back in the abyss
And it gets so very stale
But tomorrow's a new tale
e|-----------------------------------------------------------------|
B|-----------------------------------------------------------------|
G|-----------------------------------------------------------------|
D|--2---2---2---2---6---6---6---6---7---7---7---7---9---9---9---9--| x4
A|--2---2---2---2---6---6---6---6---7---7---7---7---9---9---9---9--|
E|--0---0---0---0---4---4---4---4---5---5---5---5---7---7---7---7--|

The frolic room
Whoa, the seed I have sewn
Yeah, and I'm drunk to the night
And it's kept me alive, yeah
e|---------------------------------------------------------------|
B|---------------------------------------------------------------|
G|---------------------------------------------------------------|
D|--9---9---9---9---7---7---7---7---6---6---4---2-----2---2---2--|
A|--9---9---9---9---7---7---7---7---6---6---4---2-----2---2---2--|
E|--7---7---7---7---5---5---5---5---4---4---2---0-----0---0---0--|

e|---------------|
B|---------------|
G|---------------|
D|--6----7----2--|
A|--6----7----2--|
E|--4----5----0--|


| /  slide up
| \  slide down
| h  hammer-on
| p  pull-off
| ~  vibrato
| +  harmonic
| x  Mute note


311 albums
2005 Don't Tread on Me
2003 Evolver
2001 From Chaos
1999 Soundsystem
1997 Transistor
1995 311 (Blue Album)
1994 Grassroots
1993 Music
Don't Tread on Me tabs
01Don't Tread on Me tabbass tab
02Thank Your Lucky Stars tabbass tab
03Frolic Room tabbass tab
04Speak Easy tabbass tab
05Solar Flare tabbass tab
07Long for the Flowers tabbass tab
08Getting Through to Her tabbass tab
09Whiskey & Wine tabbass tab
10It's Getting OK Now tabbass tab
11There's Always an Excuse tabbass tab

 

1