Search tabs:
Browse artists: 0-9 | A | B | C | D | E | F | G | H | I | J | K | L | M | N | O | P | Q | R | S | T | U | V | W | X | Y | Z
/ 36 Crazy Fists / Bitterness the Star (2002) / Bury Me Where I Fall guitar tab

Bb-F-Bb-Eb-G-C

Intro

C---------------------------------------------------------
G---------------------------------------------------------
Eb--------------------------------------------------------
Bb-----------------------------------------------x-x------
F------------------------------------------------x-x------
Bb--0h1--0--0---0h1--0-----0h1--0--0-----0h1--0--x-x------


Intro-continued (band kicks in)
C----------------------------------------------------------
G----------------------------------------------------------
Eb---------------------------------------------------------
Bb--0h1--0--0-----0h1--0----0h1--0--0-----0h1--0---1-------
F---0h1--0--0-----0h1--0----0h1--0--0-----0h1--0---1-------
Bb--0h1--0--0-----0h1--0----0h1--0--0-----0h1--0---1-------


C----------------------------------------------------------
G----------------------------------------------------------
Eb-------------------------------------------------8/------
Bb--0h1--0--0-----0h1--0----0h1--0--0-----0h1--0-----------
F---0h1--0--0-----0h1--0----0h1--0--0-----0h1--0---6/------
Bb--0h1--0--0-----0h1--0----0h1--0--0-----0h1--0-----------


Verses

C------------------------------------------------------------------------
G------------------------------------------------------------------------
Eb------------------5/7-7-7-7/8-8----------------------7/8-8-8-8/7-7-----
Bb--3--1--x-x-x-x----------------------3--1--x-x-x-x---------------------   2x
F---3--1--x-x-x-x---3/5-5-5-5/6-6------3--1--x-x-x-x---5/6-6-6-6/5-5-----
Bb--3--1--x-x-x-x----------------------3--1--x-x-x-x---------------------


C------------------------------------------------------------------------
G------------------------------------------------------------------------
Eb-----------------5/7--7--7/8-------------------------7/8--8--8/7-------
Bb---3--1--0--3-------------------------3--1--0--3-----------------------   2x
F----3--1--0--3----3/5--5--5/6----------3--1--0--3-----5/6--6--6/5-------
Bb---3--1--0--3-------------------------3--1--0--3-----------------------
pm   .  .  .  .                         .  .  .  .


C------------------------------------------------------------------------
G------------------------------------------------------------------------
Eb-----------------5/7--7--7/8-------------------------7/8--8--8/7-------      2x
Bb---3--1--0--3-------------------------3--1--0--3-----------------------
F----3--1--0--3----3/5--5--5/6----------3--1--0--3-----5/6--6--6/5-------
Bb---3--1--0--3-------------------------3--1--0--3-----------------------
  push  and  pull  like  sex  machines!  like  sex  machines!


Chorus

C--------------------------------------------------------
G--------------------------------------------------------
Eb-------------------------------------------------------
Bb---6--6----8-6--8-6------3--3----5-3--5-3--------------
F----6--6----6-6--6-6------3--3----3-3--3-3--------------
Bb---6--6----6-6--6-6------3--3----3-3--3-3--------------
Questioning if I should even be here


C------------------------------------------|-----------------------
G------------------------------------------|-----------------------
Eb-----------7--5--7/8-------------8--7----|-----------8-10-10-----
Bb---5--5-------------------6--6-----------|---6--6----------------
F----5--5----5--3--5/6------6--6---6--5----|---6--6----6--8--8-----
Bb---5--5-------------------6--6-----------|---6--6----------------
I won't make that same mistake                         ^  ^  ^
                                                       ^  ^  ^
                                 this variation is thrown in during the 3rd chorus


Chorus - GUITAR B

C----------------------------------6--
G---8---6----------8------------------
Eb-------------8----------------------
Bb------------------------------------
F-------------------------------------
Bb------------------------------------
Questioning if I should even be here

C----------------------------------8--
G---8---6------9---8------------------
Eb------------------------------------
Bb------------------------------------
F-------------------------------------
Bb------------------------------------
I won't make that same mistake


Bridge

C---------------------------------------------------------
G---------------------------------------------------------
Eb--------------------------------------------------------
Bb-1-0--1-0---0-1-1-0--1-0---0-1-1-0--1-0---0-1-1-0--1-0--
F--1-0--1-0---0-1-1-0--1-0---0-1-1-0--1-0---0-1-1-0--1-0--
Bb-1-0--1-0---0-1-1-0--1-0---0-1-1-0--1-0---0-1-1-0--1-0--
STARE! AT THE .. SUN!


C--------------------------------------------------------------
G--------------------------------------------------------------
Eb-------------------------------------------------------------
Bb-1-0--1-0---0-1-1-0--1-0---0-1-1-0--1-0---0-1-1-0--1-0--3-1--   2x
F--1-0--1-0---0-1-1-0--1-0---0-1-1-0--1-0---0-1-1-0--1-0--3-1--
Bb-1-0--1-0---0-1-1-0--1-0---0-1-1-0--1-0---0-1-1-0--1-0--3-1--
Staring at the .. at the ... sun!!

Bridge 2
C----------------------------------------------------------
G----------------------------------------------------------
Eb---------------------------------------------------------
Bb-0h1-0-0--0-0h1--0-0--0-0--x-x--0h1-0-0--0-0h1--0-0--0-0-
F--0h1-0-0--0-0h1--0-0--0-0--x-x--0h1-0-0--0-0h1--0-0--0-0-
Bb-0h1-0-0--0-0h1--0-0--0-0--x-x--0h1-0-0--0-0h1--0-0--0-0-

C---------------------------------------------------15----- <  2nd guitar plays
G-------------------------------------------------------19-   <   these two notes
Eb---------------------------------------------------------
Bb-0h1-0-0--0-0h1--0-0--0-0--x-x--0h1-0-0--0-0h1--0-0------
F--0h1-0-0--0-0h1--0-0--0-0--x-x--0h1-0-0--0-0h1--0-0------
Bb-0h1-0-0--0-0h1--0-0--0-0--x-x--0h1-0-0--0-0h1--0-0------


Bridge 2 - continued (band kicks in)

C----------------------------------------------------------
G----------------------------------------------------------
Eb--------------------------------------------------------- 1st and 3rd bars
Bb-0h1-0-0--0-0h1--0-0--0-0---0h1-0-0--0-0h1--0-0--0-0----- (Brock screaming)
F--0h1-0-0--0-0h1--0-0--0-0---0h1-0-0--0-0h1--0-0--0-0-----
Bb-0h1-0-0--0-0h1--0-0--0-0---0h1-0-0--0-0h1--0-0--0-0-----


C----------------------------------------------------------
G----------------------------------------------------------
Eb--------------------------------------------------------- 2nd and 4th bars
Bb-0h1-0-0--0-0h1--0-0--0-0---0h1-0-0--0-0h1--0-0--3-1----- (Steev screaming)
F--0h1-0-0--0-0h1--0-0--0-0---0h1-0-0--0-0h1--0-0--3-1-----
Bb-0h1-0-0--0-0h1--0-0--0-0---0h1-0-0--0-0h1--0-0--3-1-----


PLEASE TAKE TIME TO VISIT MY SITE FOR FREE BACKSTAGE PASSES TO CONCERTS:
http://concerts.ticketguide.org


36 Crazy Fists albums
2004 A Snow Capped Romance
2002 Bitterness the Star
Bitterness the Star tabs
01Turns to Ashes tabbass tab
02One More Word tabbass tab
03An Agreement Called Forever tabbass tab
04Eightminutesupsidedown tabbass tab
05Slit Wrist Theory tabbass tab
06Bury Me Where I Fall tabbass tab
07Dislocate tabbass tab
09Chalk White tabbass tab
10All I Am tabbass tab
11Ceramic tabbass tab
12Circle the Drain tabbass tab
13Left Hand Charity tabbass tab

 

1