Search tabs:
Browse artists: 0-9 | A | B | C | D | E | F | G | H | I | J | K | L | M | N | O | P | Q | R | S | T | U | V | W | X | Y | Z
/ 40 Below Summer / The Mourning After (2003) / Awakening guitar tab

40 Below Summer: Awakening
Tabbed by 2Fisted
Tuning:Drop B

Intro/Verse(clean with wah of phaser fade in and out)
--------------------------------------------------|
--------------------------------------------------|
----5------5------5------5-----8-----8-------6----|
---6-6----6-6----4-4----4-4---8-8---8-8-----8-8---|
--6---6--6---6--2---2--2---2-6---6-6---6~--8---8~-|
-4------4------2-----2------6-----6-------6-------|
Pre-Chorus(still clean,same effect)
--------------|
-3------------|
-2------------|Strum it, pattern's not hard to figure out.
-0------------|
-0------------|
-0------------|
Chorus(first time stop after zeros, second let them ring)
-----------------------------------------|
-----------------------------------------|
-----------------------------------------|
-7-7-7-03-3-33--540540-540-540-----------|X4
-7-7-7-03-3-33--540540-540-540-----------|
-7-7-7-03-3-33--540540-540-540-----------|
       .
end on
-------------|
-------------|
-------------|
-7~-3~-------|
-7~-3~-------|
-7~-3~-------|
Solo(a bit intimidating, but it's not too hard)
------------------------------------------------|
-12h14----12h14-----------------0---0---2-------|
------13~------9~-99-9-9-9h11-8-2b4-2b4-4b6-----|
------------------------------------------------|
------------------------------------------------|
------------------------------------------------|

---------------------------12--11--12--12b-14.5~-|
---0-0-2425-2/7-5-4/5/9--10--10--10--10----------|
-------------------------------------------------|
-22-2--------------------------------------------|
-------------------------------------------------|
-------------------------------------------------|
Interlude is just the pre-chorus.
Outro
-----------------------------------------|
-----------------------------------------|
-----------------------------------------|
-540540-540-540~-------------------------|
-540540-540-540~-------------------------|
-540540-540-540~-------------------------|


40 Below Summer albums
2003 The Mourning After
2001 Invitation to the Dance
The Mourning After tabs
01Self Medicate tabbass tab
02Taxi Cab Confession tabbass tab
03Rain tabbass tab
04Breathless tabbass tab
05Better Life tabbass tab
06Monday Song tabbass tab
07F.E. tabbass tab
08Awakening tabbass tab
09Alienation tabbass tab
10A Season in Hell tabbass tab

 

1