Search tabs:
Browse artists: 0-9 | A | B | C | D | E | F | G | H | I | J | K | L | M | N | O | P | Q | R | S | T | U | V | W | X | Y | Z
/ 40 Below Summer / The Mourning After (2003) / Breathless guitar tab

40 Below Summer: Breathless
Tabbed by 2Fisted
Tuning: Drop B

Intro(clean)
-----------------   |-----------------|
-----------------   |-----------------|
-----------------   |--12-------------|
---11---5------9-X2 |-----------------|
--9-------5---7--   |-----------------|
-9----5------7---   |-----------------|
Verse(clean)
----------------------------------|
----------------------------------|
----------------------------------|
---11---5------9-9---9---9--------|
--9-------5---7---7---7---7-------|
-9----5------7-----7---7---7------|
Pre-Chorus(clean)
----------------------------------|
----------------------------------|
----------------------------------|
---9-9~---------------------------|X4
--7---7~--------------------------|
-7-----7~-------------------------|
Chorus(dist.)
---------------------------------------------|
---------------------------------------------|
---------------------------------------------|
-10-101010-12-12121212-1212-7-777-9-9999-99--|
-8--8-8-8--10-10101010-1010-5-555-7-7777-77--|
-8--8-8-8--10-10101010-1010-5-555-7-7777-77--|

---------------------------------------------|
---------------------------------------------|
---------------------------------------------|
-10-101010-12-12121212-1212-----10~-----10~--|
-8--8-8-8--10-10101010-1010-----8~------8~---|
-8--8-8-8--10-10101010-1010-000-8~--000-8~---|
                            ...     ...
Post-Chorus is intro, but with ending as:
----------------|
----------------|
-12-------------|
----12~---------|
----------------|
----------------|
Interlude 1(dist.)
----------------------------------|
----------------------------------|
----------------------------------|
-7-777-7-7777-77--9-999-9-9999-99-|
-7-777-7-7777-77--9-999-9-9999-99-|
-7-777-7-7777-77--9-999-9-9999-99-|

----------------------------------------------|
----------------------------------------------|
----------------------------------------------|
-7-777-7-7777-77--11-11111111-11111111-1111---|
-7-777-7-7777-77--9--9-9-9-9--9-9-9-9--9-9----|
-7-777-7-7777-77--9--9-9-9-9--9-9-9-9--9-9----|
Interlude 2 is Chorus played clean.
Outro is Chorus normally.


40 Below Summer albums
2003 The Mourning After
2001 Invitation to the Dance
The Mourning After tabs
01Self Medicate tabbass tab
02Taxi Cab Confession tabbass tab
03Rain tabbass tab
04Breathless tabbass tab
05Better Life tabbass tab
06Monday Song tabbass tab
07F.E. tabbass tab
08Awakening tabbass tab
09Alienation tabbass tab
10A Season in Hell tabbass tab

 

1