Search tabs:
Browse artists: 0-9 | A | B | C | D | E | F | G | H | I | J | K | L | M | N | O | P | Q | R | S | T | U | V | W | X | Y | Z
/ / / guitar tab

BAND:  40 BELOW SUMMER
SONG:  RAIN
TABBED BY: JEREMY MAYCROFT (COLD247409@hotmail)

intro:
C#------------------------------------------------------------|
A-------------------------------------------------------------|
E-------------------------------------------------------------|
B-----7----------3----------3-3-------------------------------|
F#----7----------3----------3-3-------------------------------|
B-----7----------3----------3-3-------------------------------|
verses: will have to listen to song to get correct rythme
C#------------------0-----------0-----------------0--------------|
A-----------0-----0---------0-----0-----0-------0----------------|
E---------4----------------4------------4------4-----------------|
B-------2------3----------2---3---------2--3`--------------------|
F#----0------------------0--------------0------------------------|
B----------------------------------------------------------------|
chorus:
C#-----------------------------------------------------------------------------|
A------------------------------------------------------------------------------|
E------------------------------7-7-7--------7-7-7------------------------------|
B---2---4h5--5--5-5-5----0-0-0-7-7-7--0-0-0-7-7-7-------2---5p4--5----5-5-5----|
F#--2--------5--5-5-5----0-0-0-5-5-5--0-0-0-5-5-5-------2--------5----5-5-5----|
B---2--------5--5-5-5----0-0-0--------0-0-0-------------2--------5----5-5-5----|
bridge [2:25]
C#--------------------------------------------------------t--|
A-------------------------------------------------------a----|
E-----------------------------------------------------e------|
B----3-3-3-3-2-2-2--02---33---00---33----0-2-3------p--------|
F#---3-3-3-3-2-2-2--02---33---00---33----0-2-3----e----------|
B----3-3-3-3-2-2-2--02---33---00---33----0-2-3--r------------|

bridge (cont)  [2:45]
C#-----------------------------------------------------------------------|
A------------------------------------------------------------------------|
E------------------------------------------------------------------------|
B----3-3-3-2-2-2----0-0-0------320--320--023---3-3-3-2-2-2-----0-0-0-----|
F#---3-3-3-2-2-2----0-0-0------320--320--023---3-3-3-2-2-2-----0-0-0-----|
B----3-3-3-2-2-2----0-0-0------320--320--023---3-3-3-2-2-2-----0-0-0-----|

song ends with the intro part and alittle variation of the verse part


albums
tabs

 

1