Search tabs:
Browse artists: 0-9 | A | B | C | D | E | F | G | H | I | J | K | L | M | N | O | P | Q | R | S | T | U | V | W | X | Y | Z
/ A Perfect Circle / Thirteenth Step (2003) / The Outsider guitar tab

A Perfect Circle: \\\"The Outsider\\\"
Tabbed by: Joseph Crachiolo

[This was created with TabIt for Windows version 1.62]

Key:
* stop string
x mute string
<> nat. harmonic
/ slide up
 slide down
b bend
^ bend up
h hammer-on
p pull-off
pm palm-mute

*** A LITTLE TIP FOR SOME OF YOU: Db = C#, Ab = G#, and Gb = F#.

Thanks for stealing my old tab, awakenedblind!


Intro 3/4
Guitar 1                                                                       
Db :----------------|---------------|-----------------|----------------|
Ab :----------------|---------------|-----------------|----------------|
E  :--9---9---9---9-|--9---9---9----|*-9---9---9---9--|--9---9-----*---|
B  :----9-------9---|----9-------9--|*---7-------7---0|-*--7-------*---|
Gb :7-------7-------|7-------7-----0|5-------5--------|-----------10-p9|
Db :----------------|---------------|-----------------|8-------8-------|

                                                                  
Db :----------------|----------------------------|-----------------|
Ab :----------------|----------------------------|-----------------|
E  :--9---9---9---9-|--9---9---10-p9----7-h9-p7-*|--9---9---9---9\\\\-|
B  :----9-------9---|----9---9-------(9)*-------7|*---7-------7----|
Gb :7-------7-------|7------------------*--------|5-------5--------|
Db :*---------------|----------------------------|-----------------|


Db :-------------------|
Ab :-------------------|
E  :*----6------*-9----|
B  :*------7--------*--|
Gb :*---------------*--|
Db :3-/5-----5-/8---*--|

=========================================================================================

Verse 1 4/4
Guitar 1                                                
Db :0---------------|----------------|----------------|
Ab :0---------------|----------------|----------------|
E  :9---------------|----------------|----------------|
B  :9---------------|----------------|----------------|
Gb :7---------------|----------------|----------------|
Db :0---------------|----------------|----------------|

Guitar 2
Db :----------------|----------------|----------------|
Ab :----------------|----------------|----------------|
E  :9---------------|----------------|----------------|
B  :9---------------|----------------|----------------|
Gb :7---------------|----------------|----------------|
Db :0---------------|----------------|----------------|

Bass
E  :----------------|----------------|----------------|
B  :----------------|----------------|----------------|
Gb :---7--8--8--7---|----------------|---7--8--8--7---|
Db :0---------------|0---------------|0---------------|

=========================================================================================

                              w   /    slide  (doubled 1 octave down until 2nd verse) 
Db :---------------------------------|--------------------|----------------|
Ab :x\\\\-\\\\-\\\\-\\\\-x/-/-/-/-/-/-/-/-(5)(10)|/12-----12-----12---|----------------|
E  :---------------------------------|--------------------|----------------|
B  :---------------------------------|--------------------|----------------|
Gb :---------------------------------|--------------------|----------------|
Db :---------------------------*-----|--------------------|----------------|

Db :---------------------------------|--------------------|----------------|
Ab :---------------------------------|--------------------|----------------|
E  :---------------------------------|--------------------|----------------|
B  :---------------------------------|--------------------|----------------|
Gb :---------------------------------|--------------------|----------------|
Db :---------------------------------|--------------------|----------------|

E  :---------------------------------|--------------------|----------------|
B  :---------------------------------|--------------------|----------------|
Gb :---------------------------------|-----7---8--8---7---|----------------|
Db :0----------0---------------------|--0-----------------|0---------------|

=========================================================================================

                                                
Db :-----------------------|------------------------------|
Ab :12--12-12-12--12--12---|/15-\\\\-12-/-13-\\\\-10-/-13-\\\\12-12|
E  :-----------------------|------------------------------|
B  :-----------------------|------------------------------|
Gb :-----------------------|------------------------------|
Db :-----------------------|------------------------------|

Db :-----------------------|------------------------------|
Ab :-----------------------|------------------------------|
E  :-----------------------|------------------------------|
B  :-----------------------|------------------------------|
Gb :-----------------------|------------------------------|
Db :-----------------------|------------------------------|

E  :-----------------------|------------------------------|
B  :-----------------------|------------------------------|
Gb :-----7-----8---8-------|------------7-----------------|
Db :-0-----------------0---|--0--------------0----0-------|

=========================================================================================

Pre-chorus 1  3/4                                                                
Db :---------------------------------|--------------------------------|
Ab :-12------12----12-12-12-12-12-\\\\10|10------10----10-10-10-10-10-/12|
E  :---------------------------------|--------------------------------|
B  :---------------------------------|--------------------------------|
Gb :---------------------------------|--------------------------------|
Db :---------------------------------|--------------------------------|
                          pm--|                            pm--|
Db :--*------------------------------|--------------------------------|
Ab :--*------------------------------|--------------------------------|
E  :--*------------------------------|--------------------------------|
B  :--*------------------------------|--------------------------------|
Gb :--*----------------7--------7----|------------------7--------7----|
Db :--0-3-h5--0-3-h-5-----0--0-------|-0-3-h5--0-3-h-5-----0--0-------|

E  :---------------------------------|--------------------------------|
B  :---------------------------------|--------------------------------|
Gb :/-7-------7-----7--7--7--7--7----|--------------------------------|
Db :---------------------------------|-8-8--8--8-----8--8--8--8--8-\\\\-5|

=========================================================================================

                                                                         
Db :--------------------------------|------------------------------------|
Ab :12------12----12-12-12-12-12-/13|13------13----13-13----/15-15-15-\\\\10|
E  :--------------------------------|------------------------------------|
B  :--------------------------------|------------------------------------|
Gb :--------------------------------|------------------------------------|
Db :--------------------------------|------------------------------------|
                         pm--|                               pm---|
Db :--------------------------------|------------------------------------|
Ab :--------------------------------|------------------------------------|
E  :--------------------------------|------------------------------------|
B  :--------------------------------|------------------------------------|
Gb :------------------7--------7----|------------------------------------|
Db :-0-3-h5--0-5-p-3-----0--0-------|-0-3-h5--0-3-h-5--3-p0---0--0--3-p-0|

E  :--------------------------------|------------------------------------|
B  :--------------------------------|------------------------------------|
Gb :--------------------------------|------------------------------------|
Db :-5----5--5-----5--5--5--5--5---5|-8-8--8--8-8---8--8------0--0--3-/-5|

=========================================================================================

                                                                         
Db :---------------------------------|-----------------------------------|
Ab :/12------12----12-12-12-12-12-\\\\10|10--------10-----10-10--10-10-10-\\\\8|
E  :---------------------------------|-----------------------------------|
B  :---------------------------------|-----------------------------------|
Gb :---------------------------------|-----------------------------------|
Db :---------------------------------|-----------------------------------|
                          pm--|                               pm---|
Db :---------------------------------|-----------------------------------|
Ab :---------------------------------|-----------------------------------|
E  :---------------------------------|-----------------------------------|
B  :---------------------------------|-----------------------------------|
Gb :-------------------7--------7----|---------------------7---------7---|
Db :--0-3-h5--0-3-h-5-----0--0-------|-0--3-h-5--0--3-h-5------0--0------|

E  :---------------------------------|-----------------------------------|
B  :---------------------------------|-----------------------------------|
Gb :--7-------7-----7--7--7--7--7-/10|10-10--10-10-10--10-10--10-10-10-\\\\-|
Db :---------------------------------|-----------------------------------|

=========================================================================================

                                                         
Db :------------------------|----------------------------|
Ab :8------8----8-8-8-8-8-\\\\7|7------7----7-7--7-\\\\5-5-5-\\\\3|
E  :------------------------|----------------------------|
B  :------------------------|----------------------------|
Gb :------------------------|----------------------------|
Db :------------------------|----------------------------|
                    pm-|                         pm-|
Db :------------------------|----------------------------|
Ab :------------------------|----------------------------|
E  :------------------------|----------------------------|
B  :------------------------|----------------------------|
Gb :--------------7-----7---|----------------------------|
Db :0-3-h5-0-5-p3---0-0-----|0-3-h5-0-3-h5-3-p0--0-0-3-p0|

E  :------------------------|----------------------------|
B  :------------------------|----------------------------|
Gb :------------------------|----------------------------|
Db :8----8---8--8-8-8-8-8--8|5-5--5-5-5--5-5-p0--0-0-3-/5|

=========================================================================================

Chorus 1                                                                        
Db :----------------------|-----------------------|---------------------|
Ab :/5--------------------|-----------------------|---------------------|
E  :----------------------|-----------------------|---------------------|
B  :----------------------|-----------------------|---------------------|
Gb :----------------------|-----------------------|---------------------|
Db :----------------------|-----------------------|---------------------|

Db :----------------------|-----------------------|---------------------|
Ab :----------------------|-----------------------|---------------------|
E  :---9---9-------9---9--|----9---9-------9---9--|*-9---9-------9---9--|
B  :-*---9-----------9----|------9-----------9----|*---7-----------7----|
Gb :-7---------7----------|7-----------7----------|5---------5----------|
Db :-*--------------------|-----------------------|---------------------|

E  :----------------------|-----------------------|---------------------|
B  :----------------------|-----------------------|---------------------|
Gb :-7-7-7-7-7-7-7-7-7-7-7|7-7-7-7-7-7-7-7-7-7-7-7|5-5-5-5-5-5-5-5-5-5-5|
Db :----------------------|-----------------------|---------------------|

=========================================================================================

                                                     
Db :------------------------|------------4---/--5----|
Ab :------------------------|------------------------|
E  :------------------------|------------------------|
B  :------------------------|------------------------|
Gb :------------------------|------------------------|
Db :------------------------|------------------------|

Db :------------------------|------------------------|
Ab :------------------------|------------------------|
E  :----9---9-----------*---|----9---9--------9---9--|
B  :------7-------------*---|------9------------9----|
Gb :*------------------10-p9|7-----------7-----------|
Db :8-----------8-------*---|------------------------|

E  :------------------------|------------------------|
B  :------------------------|------------------------|
Gb :3-3-3-3-3-3-3-3-3-/10--9|7-7-7-7-7-7-7-7--7-7-7-7|
Db :------------------------|------------------------|

=========================================================================================

                                                                                   
Db :5-/7------------/--/10---------\\\\-|\\\\7--------------------|/12--------\\\\10--------|
Ab :---------------------------------|----------------------|----------------------|
E  :---------------------------------|----------------------|----------------------|
B  :---------------------------------|----------------------|----------------------|
Gb :---------------------------------|----------------------|----------------------|
Db :---------------------------------|----------------------|----------------------|

Db :---------------------------------|----------------------|----------------------|
Ab :---------------------------------|----------------------|----------------------|
E  :-----9---9---10-p9-----7-h9-p7--*|---9---9-------9---9--|--*----6--------*-9-\\\\-|
B  :-------9---9---------7-*--------7|-*---7-----------7----|--*------7------*-----|
Gb :7----------------------*---------|-5---------5----------|--*-------------------|
Db :---------------------------------|----------------------|--3-/5-------5-/8-----|

E  :---------------------------------|----------------------|----------------------|
B  :---------------------------------|----------------------|----------------------|
Gb :7--7-7-7-7-7--7--7---7-7-----7--7|-5-5-5-5-5-5-5-5-5-5-5|----------------------|
Db :---------------------------------|----------------------|--3-/5-5-5---5-/8-8--8|

=========================================================================================

                                                                             
Db :\\\\7---7--7--10--|10-\\\\-(7)7--7--10--|10-\\\\-(7)7--7--10--|10-\\\\-(7)7--/8----/-|
Ab :---------------|------------------|------------------|-------------------|
E  :---------------|------------------|------------------|-------------------|
B  :---------------|------------------|------------------|-------------------|
Gb :---------------|------------------|------------------|-------------------|
Db :---------------|------------------|------------------|-------------------|

Db :---------------|------------------|------------------|-------------------|
Ab :---------------|------------------|------------------|-------------------|
E  :-*-------------|------------------|------------------|-------------------|
B  :-9-------------|------------------|------------------|-------------------|
Gb :-7-------------|------------------|------------------|-------------------|
Db :-0-------------|------------------|------------------|-------------------|

E  :---------------|------------------|------------------|-------------------|
B  :---------------|------------------|------------------|-------------------|
Gb :---------------|------------------|------------------|-------------------|
Db :-0-------------|------------------|------------------|-------------------|

=========================================================================================

Verse 2  4/4                                                         
Db :(10)------------------|--------------------|\\\\7-------------------|
Ab :--*-------------------|--------------------|---------------------|
E  :--*-------------------|--------------------|---------------------|
B  :--*-------------------|--------------------|---------------------|
Gb :--*-------------------|--------------------|---------------------|
Db :--*-------------------|--------------------|---------------------|
     pm--------------|     pm-------------|     pm--------------|
Db :----------------------|--------------------|---------------------|
Ab :----------------------|--------------------|---------------------|
E  :----------------------|--------------------|---------------------|
B  :------------------3-2-|----------------3-2-|-----------------3---|
Gb :--2-2-2-2-2-2-2-2-3-2-|2-2-2-2-2-2-2-2-3-2-|-2-2-2-2-2-2-2-2-3---|
Db :--0-0*0-0*0-0*0-0*1-0-|0-0*0-0*0-0*0-0*1-0-|-0-0*0-0*0-0*0-0*1-0-|

E  :----------------------|--------------------|---------------------|
B  :----------------------|--------------------|---------------------|
Gb :----------------------|--------------------|---------------------|
Db :--0-0*0-0*0-0*0-0*1-0-|0-0*0-0*0-0*0-0*1-0-|-0-0*0-0*0-0*0-0*1-0-|

=========================================================================================

                                                                   
Db :/11-----------\\\\10---|\\\\7-------------------|--------------------|
Ab :--------------------|---------------------|--------------------|
E  :--------------------|---------------------|--------------------|
B  :--------------------|---------------------|--------------------|
Gb :--------------------|---------------------|--------------------|
Db :--------------------|---------------------|--------------------|
         pm    pm         pm--------------|    pm-------------|
Db :--------------------|---------------------|--------------------|
Ab :--------------------|---------------------|--------------------|
E  :--------------------|---------------------|--------------------|
B  :--5-----3-------3-2-|-----------------3-2-|----------------3-2-|
Gb :--5--2--3--5----3-2-|-2-2-2-2-2-2-2-2-3-2-|2-2-2-2-2-2-2-2-3-2-|
Db :--3--0--1--5----1-0-|-0-0*0-0*0-0*0-0*1-0-|0-0*0-0*0-0*0-0*1-0-|

E  :--------------------|---------------------|--------------------|
B  :--------------------|---------------------|--------------------|
Gb :-----------5--------|---------------------|--------------------|
Db :--3--0--1-------1-0-|-0-0*0-0*0-0*0-0*1-0-|0-0*0-0*0-0*0-0*1-0-|

=========================================================================================

                                            
Db :--------------------|-------------------|
Ab :--------------------|-------------------|
E  :--------------------|-------------------|
B  :--------------------|-------------------|
Gb :--------------------|-------------------|
Db :--------------------|-------------------|
    pm-------------|      
Db :--------------------|-------------------|
Ab :--------------------|-------------------|
E  :--------------------|-------------------|
B  :----------------3---|5-------3--6--7~---|
Gb :2-2-2-2-2-2-2-2-3---|5-------3--x--x----|
Db :0-0*0-0*0-0*0-0*1-0-|3--0----1--4--5~---|

E  :--------------------|-------------------|
B  :--------------------|-------------------|
Gb :--------------------|-----------5-------|
Db :0-0*0-0*0-0*0-0*1-0-|3--0----1-----5----|

=========================================================================================

Pre-chorus 2 3/4
    slide off                                            
Db :----------------------------------|--------------------------------|
Ab :----------------------------------|--------------------------------|
E  :16------16----16-16---16-16-16-\\\\14|14------14----14-14-14-14-14-/16|
B  :-x-------x-----x--x----x--x--x----|-x-------x-----x--x--x--x--x----|
Gb :14------14----14-14---14-14-14-\\\\12|12------12----12-12-12-12-12-/14|
Db :----------------------------------|--------------------------------|
                           pm--|                            pm--|
Db :-*--------------------------------|--------------------------------|
Ab :-*--------------------------------|--------------------------------|
E  :-*--------------------------------|--------------------------------|
B  :-*--------------------------------|--------------------------------|
Gb :-*----------------7----------7----|------------------7--------7----|
Db :-0-3-h5--0-3-h-5-------0--0-------|-0-3-h5--0-3-h-5-----0--0-------|

E  :----------------------------------|--------------------------------|
B  :----------------------------------|--------------------------------|
Gb :-7-7--7--7-----7--7-7--7--7--7----|--------------------------------|
Db :----------------------------------|-8-8--8--8-----8--8--8--8--8---8|

=========================================================================================

                                                                        
Db :--------------------------------|-----------------------------------|
Ab :--------------------------------|-----------------------------------|
E  :16------16----16-16-16-16-16-/17|17------17----17-17----19-19-19-\\\\14|
B  :-x-------x-----x--x--x--x--x----|-x-------x-----x--x-----x--x--x----|
Gb :14------14----14-14-14-14-14-/15|15------15----15-15----17-17-17-\\\\12|
Db :--------------------------------|-----------------------------------|
                         pm--|                               pm--|
Db :--------------------------------|-----------------------------------|
Ab :--------------------------------|-----------------------------------|
E  :--------------------------------|-----------------------------------|
B  :--------------------------------|-----------------------------------|
Gb :------------------7--------7----|-----------------------------------|
Db :-0-3-h5--0-3-h-5-----0--0-------|-0-3-h5--0-3-h-5--3-p0--0--0--3-p-0|

E  :--------------------------------|-----------------------------------|
B  :--------------------------------|-----------------------------------|
Gb :--------------------------------|-----------------------------------|
Db :-5-5--5--5-5---5--5--5--5--5---5|-8-8--8--8-----8--8--8--0--0--3-/-5|

=========================================================================================

                                                                          
Db :---------------------------------|------------------------------------|
Ab :---------------------------------|------------------------------------|
E  :/16------16----16-16-16-16-16-\\\\14|14--------14-----14-14--14-14-14-\\\\12|
B  :--x-------x-----x--x--x--x--x----|-x---------x------x--x---x--x--x----|
Gb :/14------14----14-14-14-14-14-\\\\12|12--------12-----12-12--12-12-12-\\\\10|
Db :---------------------------------|------------------------------------|
                          pm--|                                pm--|
Db :---------------------------------|------------------------------------|
Ab :---------------------------------|------------------------------------|
E  :---------------------------------|------------------------------------|
B  :---------------------------------|------------------------------------|
Gb :-------------------7--------7----|---------------------7---------7----|
Db :--0-3-h5--0-3-h-5-----0--0-------|-0--3-h-5--0--3-h-5------0--0-------|

E  :---------------------------------|------------------------------------|
B  :---------------------------------|------------------------------------|
Gb :--7----7--7-----7--7--7--7--7-/10|10-10--10-10-10--10-10--10-10-10--10|
Db :---------------------------------|------------------------------------|

=========================================================================================

                                                                     
Db :--------------------------------|--------------------------------|
Ab :--------------------------------|--------------------------------|
E  :12------12----12-12-12-12-12-\\\\11|11------11----11-11--11-9-9-9--9|
B  :-x-------x-----x--x--x--x--x----|-x-------x-----x--x---x-x-x-x--x|
Gb :10------10----10-10-10-10-10-\\\\-9|-9-------9-----9--9---9-7-7-7--7|
Db :--------------------------------|--------------------------------|
                         pm--|                               pm--|
Db :--------------------------------|--------------------------------|
Ab :--------------------------------|--------------------------------|
E  :--------------------------------|--------------------------------|
B  :--------------------------------|--------------------------------|
Gb :------------------7--------7----|--------------------------------|
Db :-0-3-h5--0-3-h-5-----0--0-------|-0-3-h5--0-3-h-5--3-p-0-0-0-3-p0|

E  :--------------------------------|--------------------------------|
B  :--------------------------------|--------------------------------|
Gb :--------------------------------|--------------------------------|
Db :-8-8--8--8-----8--8--8--8--8---8|-5----5--5-----5--5-p-0-0-0-3-/5|

=========================================================================================

Chorus 2
    both guitars                                                                                    
Db :--------------------|--------------------|------------------|-------------------|
Ab :--------------------|--------------------|------------------|-------------------|
E  :*-9---9-------9---9-|--9---9---9-----9---|--9---9-----9---9-|--9---9--------*---|
B  :*---9-----------9---|----9---------9-----|*---7---------7---|----7----------*---|
Gb :7-------7-7---------|7-------7-----------|5-------5---------|*-------------10-p9|
Db :0-------0-0---------|0-------0-----------|*-----------------|8-------8------*---|

E  :--------------------|--------------------|------------------|-------------------|
B  :--------------------|--------------------|------------------|-------------------|
Gb :--------------------|--------------------|5-5---5---5---5-5-|3-3-3-3-3-3/-/10--9|
Db :0-0---0---0-0---0-0-|0-0---0-----0---0-0-|------------------|-------------------|

=========================================================================================

                                                                                
Db :----------------|--------------------|-----------------------|--------------|
Ab :----------------|--------------------|-----------------------|--------------|
E  :9-9---9-9-7-9-9-|7-/9-9-9-9-/12-9-9--|*---9---9-------9----9-|--------------|
B  :9-9-9-9-9-7-9-9-|7-/9-9-9-9-/12-9-9--|*-----7------------7---|x7-7-7x10-10--|
Gb :7-7-7-7-7-5-7-7-|5-/7-7-7-7-/10-7-7--|5-------------5--------|x7-7-7x10-10--|
Db :----------------|--------------------|-----------------------|x5-5-5x-8--8--|

E  :----------------|--------------------|-----------------------|--------------|
B  :----------------|--------------------|-----------------------|--------------|
Gb :7-7---7-7-5-7-7-|5-h7-7-7-7-/10-7-7--|5-5---5---5-/12---12---|--------------|
Db :----------------|--------------------|-----------------------|x5-5-5x-8--8--|

=========================================================================================

interlude   3/4            clean                                                   
Db :--------------|-------------|----------------------|-----------------|
Ab :--------------|-------------|----------------------|-----------------|
E  :9-------------|--------*----|----------------------|-----------------|
B  :9-------------|--------*----|----------------------|-----------------|
Gb :7-------------|--------7----|/11--11---11----7-8-p7|7--7---7---7-7-\\\\2|
Db :0-------------|--------0-0-0|--0---0-0--0-0--0-0---|0--0-0-0-0-0-0---|

Db :--------------|-------------|----------------------|-----------------|
Ab :--------------|-------------|----------------------|-----------------|
E  :--------------|-------------|----------------------|-----------------|
B  :--------------|-------------|----------------------|-----------------|
Gb :2-------------|-------------|----------------------|-----------------|
Db :0-------------|-------------|----------------------|-----------------|

E  :--------------|-------------|----------------------|-----------------|
B  :--------------|-------------|----------------------|-----------------|
Gb :--------------|-------------|----------------------|-----------------|
Db :0-------------|-------------|----------------------|-----------------|

=========================================================================================

                                                                     
Db :-----------------|-----------------|-----------------------------|
Ab :-----------------|-----------------|-----------------------------|
E  :-----------------|-----------------|-----------------------------|
B  :--0---0----------|-----------------|-----------------------------|
Gb :2---2---2----8-\\\\7|7---7---7---7-7-7|11---11-----11-11--h12-12-h14|
Db :--------0--0-----|0-0-0-0-0-0-0-0-0|-0-0--0-0-0--0--0-------0----|

Db :-----------------|-----------------|-----------------------------|
Ab :-----------------|-----------------|-----------------------------|
E  :-----------------|-----------------|-----------------------------|
B  :-----------------|-----------------|-----------------------------|
Gb :-----------------|-----------------|-----------------------------|
Db :-----------------|-----------------|-----------------------------|

E  :-----------------|-----------------|-----------------------------|
B  :-----------------|-----------------|-----------------------------|
Gb :-----------------|-----------------|-----------------------------|
Db :-----------------|-----------------|-----------------------------|

=========================================================================================

                                                              
Db :----------------------------|-----------------------------|
Ab :----------------------------|-----------------------------|
E  :----------------------------|-----------------------------|
B  :----------------------------|-----------------------------|
Gb :14-----14-----14---14-14-\\\\12|12---12---14----12-11-h12-p11|
Db :-0-0-0--0-0-0--0-0--0--0---0|-0-0--0-0--0-0---0--0--------|

Db :----------------------------|-----------------------------|
Ab :----------------------------|-----------------------------|
E  :----------------------------|-----------------------------|
B  :----------------------------|-----------------------------|
Gb :----------------------------|-----------------------------|
Db :----------------------------|-----------------------------|

E  :----------------------------|-----------------------------|
B  :----------------------------|-----------------------------|
Gb :----------------------------|-----------------------------|
Db :----------------------------|-----------------------------|

=========================================================================================

                              
Db :--------------------------|
Ab :--------------------------|
E  :--------------------------|
B  :--------------------------|
Gb :11---11-----11-11-11-11---|
Db :-0-0--0-0-0--0--0--0--0--0|

Db :--------------------------|
Ab :--------------------------|
E  :--------------------------|
B  :--------------------------|
Gb :------------------11-11---|
Db :-------------------0--0--0|

E  :--------------------------|
B  :--------------------------|
Gb :--------------------------|
Db :------------------12-12-12|

=========================================================================================

                                                                       
Db :----------------------------|--------------------|-----------------|
Ab :----------------------------|--------------------|-----------------|
E  :13---13-------13--7-/9-10-\\\\9|9---9-9---9-9-9-9-\\\\4|*-----------10-\\\\9|
B  :-x----x--------x--x--x--x---|x---x-x---x-x-x-x---|--0---0------x---|
Gb :11---11-------11--5-/7--8-\\\\7|7---7-7---7-7-7-7--2|2---2---2----8-\\\\7|
Db :-0----0--0--0--0--0-----0---|0-0-0-0-0-0-0-0-0---|0-------0-0------|

Db :----------------------------|--------------------|-----------------|
Ab :----------------------------|--------------------|-----------------|
E  :13---13-------13-13----10-\\\\9|9---9-9---9-9-9-9-\\\\4|*-----------10-\\\\9|
B  :-x----x--------x--x-----x---|x---x-x---x-x-x-x---|--0---0------x---|
Gb :11---11-------11-11-----8-\\\\7|7---7-7---7-7-7-7--2|2---2---2----8-\\\\7|
Db :-0-0--0-----0--0--0--0--0---|0-0-0-0-0-0-0-0-0---|0-------0-0------|

E  :----------------------------|--------------------|-----------------|
B  :----------------------------|--------------------|-----------------|
Gb :11---11-------11-11-----8-p7|7-------------------|--5---5---7--8-p7|
Db :--------12-12--------0------|--0-0-0-0-0-0-0-0--7|7---7---7--------|

=========================================================================================

                                                                                 
Db :-------------------|-----------------------------|---------------------------|
Ab :-------------------|-----------------------------|---------------------------|
E  :9---9-----9-9-9-9--|13--13-------13-13-/14-14-/16|16---16------16----16-16---|
B  :x---x-----x-x-x-x--|-x---x--------x--x------x----|-x----x-------x-----x--x---|
Gb :7---7-----7-7-7-7--|11--11-------11-11-/12-12-/14|14---14------14----14-14---|
Db :0-0-0---0-0-0-0-0-0|-0---0--0--0--0--0------0----|-0-0--0-0--0--0--0--0--0--0|

Db :-------------------|-----------------------------|---------------------------|
Ab :-------------------|-----------------------------|---------------------------|
E  :9---9-*---9-9-9-9--|13--13-------13-13-/14-14-/16|16---16------16-16-16-16---|
B  :x---x-----x-x-x-x--|-x---x--------x--x------x----|-x----x-------x--x--x--x---|
Gb :7---7-*---7-7-7-7--|11--11-------11-11-/12-12-/14|14---14------14-14-14-14---|
Db :0-0-0---0-0-0-0-0-0|-0---0--0--0--0--0------0----|-0-0--0-0--0--0--0--0--0--0|

E  :-------------------|-----------------------------|---------------------------|
B  :-------------------|-----------------------------|---------------------------|
Gb :7------------------|11--11-------11-11-/12-12-/14|14---14------14-14-14-14---|
Db :--0-0-0-0-0-0-0-0-0|-------12-12-----------------|----------12-------------12|

=========================================================================================

                                                                 
Db :----------------------------|--------------------------------|
Ab :----------------------------|--------------------------------|
E  :16-/19-19-16-19-16----22-\\\\21|21-21-21-21---------------------|
B  :-x------x--x--x--x-----x----|-x-----x---------<-5>-----------|
Gb :14-/17-17-14-17-14----20-\\\\19|19-19-19-19---------------------|
Db :-0------0--0--0--0--0--0----|-0--0--0--0----0----------------|

Db :----------------------------|--------------------------------|
Ab :----------------------------|--------------------------------|
E  :16-/19-19-16-19-16----22-\\\\21|21-21-21-21---21--21------------|
B  :-x------x--x--x--x-----x----|-x--x--x--x----x---x------------|
Gb :14-/17-17-14-17-14----20-\\\\19|19-19-19-19---19--19------------|
Db :-0------0--0--0--0--0--0----|-0--0--0--0----0---0--------12\\\\-|

E  :----------------------------|--------------------------------|
B  :----------------------15-p14|14-14-14-14---14--14------------|
Gb :14-/17-17-14-17-14----------|--------------------------------|
Db :-------------------12-------|----------------------------12\\\\-|

=========================================================================================

Pre chorus (?) 3
    both guitars    pm-|                 pm-|                           pm-|                              
Db :----------------------|----------------------|-------------------------------|
Ab :----------------------|----------------------|-------------------------------|
E  :----------------------|----------------------|-------------------------------|
B  :--------------9-----9-|------------9-----9---|--------------------9--------9-|
Gb :--5-/7---5-/7-7-7-7-7-|5-/7---5-/7-7-7-7-7---|----5-/-7----7-\\\\-5--7--7--7--7-|
Db :0-3-/5-0-3-/5---0-0---|3-/5-0-3-/5---0-0-----|-0--3-/-5--0-5-\\\\-3-----0--0----|

E  :----------------------|----------------------|-------------------------------|
B  :----------------------|----------------------|-------------------------------|
Gb :----------------------|----------------------|-------------------------------|
Db :0----0-0-0--0-0-0-0-0-|3--3-3-3--3-3-3-3-3-/7|10-10--10-10----10-10-10-10-10-|

=========================================================================================

                       pm-|                     pm-|                   pm--|                   
Db :---------------------------|----------------------|-------------------------|
Ab :---------------------------|----------------------|-------------------------|
E  :---------------------------|----------------------|-------------------------|
B  :---------------------------|--------------9-----9-|--------------9------9---|
Gb :--5-/7---5-/7-5--------5---|--5-/7---5-/7-7-7-7-7-|--5-/7---5-/7-7--7-7-7---|
Db :0-3-/5-0-3-/5-3-p0-0-0-3-p0|0-3-/5-0-3-/5---0-0---|0-3-/5-0-3-/5----0-0-----|

E  :---------------------------|----------------------|-------------------------|
B  :---------------------------|----------------------|-------------------------|
Gb :---------------------------|----------------------|-------------------------|
Db :8-8--8-8-8--8-8----0-0-3-h5|0----0-0-0--0-0-0-0-0-|3----3-3-3--3-3--3-3-3-/7|

=========================================================================================

                           pm--|                          pm-|                                       
Db :---------------------------------|----------------------------|
Ab :---------------------------------|----------------------------|
E  :---------------------------------|----------------------------|
B  :--------------------9--------9---|----------------------------|
Gb :---5-/-7-----7-\\\\-5--7--7--7--7---|---5-/7---5-/7-5--------5---|
Db :-0-3-/-5--0--5-\\\\-3-----0--0------|-0-3-/5-0-3-/5-3-p0-0-0-3-p0|

E  :---------------------------------|----------------------------|
B  :---------------------------------|----------------------------|
Gb :---------------------------------|----------------------------|
Db :10----10-10-10--10-10-10-10-10-10|\\\\8----8-8-8--8-8----0-0-3-h5|

=========================================================================================

    ...this!
    guitar 1, bass rests                                           
     pm--|  pm   pm          pm----|       pm     etc....
Db :-------------------|-----------------------|----------------|
Ab :-------------------|-----------------------|----------------|
E  :9-----9---12---9-\\\\-|7-/9---------10-\\\\9---9-|7-----7---7-7-7-|
B  :9-9-9-9-9-12-9-9-\\\\7|7-/9-9-9-9-9-10-\\\\9-9-9-|7-7-7-7-7-7-7-7-|
Gb :7-7-7-7-7-10-7-7-\\\\5|5-/7-7-7-7-7--8-\\\\7-7-7-|5-5-5-5-5-5-5-5-|
Db :-------------------|-----------------------|----------------|


=========================================================================================

                                                                            
Db :----------------------------|-------------------|-----------------------|
Ab :----------------------------|-------------------|-----------------------|
E  :12-------12-12-/14-14-14--14|9-----9---12---9-\\\\7|7-/9---------10-\\\\9---9-|
B  :12-12-12-12-12-/14-14-14--14|9-9-9-9-9-12-9-9-\\\\7|7-/9-9-9-9-9-10-\\\\9-9-9-|
Gb :10-10-10-10-10-/12-12-12--12|7-7-7-7-7-10-7-7-\\\\5|5-/7-7-7-7-7--8-\\\\7-7-7-|
Db :----------------------------|-------------------|-----------------------|
    guitar 2
Db :----------------------------|-------------------|-----------------------|
Ab :----------------------------|-------------------|-----------------------|
E  :----------------------14-\\\\--|9-----9---12---9-\\\\7|7-/9---------10-\\\\9---9-|
B  :----------------------14-\\\\--|9-9-9-9-9-12-9-9-\\\\7|7-/9-9-9-9-9-10-\\\\9-9-9-|
Gb :----------------------12-\\\\--|7-7-7-7-7-10-7-7-\\\\5|5-/7-7-7-7-7--8-\\\\7-7-7-|
Db :----------------------------|-------------------|-----------------------|


=========================================================================================

                                                         
Db :----------------|----------------------------------|
Ab :----------------|----------------------------------|
E  :7-----7---7---7-|-----6-------*---9------------\\\\---|
B  :7-7-7-7-7-7-7-7-|-------7-----*--------------------|
Gb :5-5-5-5-5-5-5-5-|----------------------------------|
Db :----------------|3-/5-----5--/8--------------------|

Db :----------------|----------------------------------|
Ab :----------------|----------------------------------|
E  :7-----7---7---7-|-----6-------*---9--------------^-|
B  :7-7-7-7-7-7-7-7-|-------7-----*--------------------|
Gb :5-5-5-5-5-5-5-5-|-------------*--------------------|
Db :----------------|3-/5-----5--/8--------------------|

E  :----------------|----------------------------------|
B  :----------------|----------------------------------|
Gb :----------------|----------------------------------|
Db :----------------|-----------------8\\\\-\\\\-\\\\-\\\\-\\\\-\\\\-\\\\---|

=========================================================================================

Disconnect and self destruct....                                                                           
Db :---------------|-----------------|-----------------|-------------<5><5><5>|
Ab :---------------|-----------------|-----------------|----------<5>---------|
E  :---------------|-----------------|-----------------|----------------------|
B  :2--2--2-x/12---|12-\\\\-2--2-x/12---|12-\\\\-2--2-x/12---|12-\\\\-2--2-------------|
Gb :2--2--2-x/12---|12-\\\\-2--2-x/12---|12-\\\\-2--2-x/12---|12-\\\\-2--2-------------|
Db :0--0--0-x/10---|10-\\\\-0--0-x/10---|10-\\\\-0--0-x/10---|10-\\\\-0--0-------------|

Db :---------------|-----------------|-----------------|----------------------|
Ab :---------------|-----------------|-----------------|----------------------|
E  :*--------------|-----------------|-----------------|----------------------|
B  :*---------12-~-|12-\\\\--------12-~-|12-\\\\--------12-~-|12-\\\\------------------|
Gb :*----------x---|-x-----------x---|-x-----------x---|-x--------------------|
Db :0--0--0-x-10-~-|10-\\\\-0--0-x-10-~-|10-\\\\-0--0-x-10-~-|10-\\\\-0--0--*----------|

E  :---------------|-----------------|-----------------|----------------------|
B  :---------------|-----------------|-----------------|----------------------|
Gb :---------------|-----------------|-----------------|----------------------|
Db :0--0--0-x-10---|10-\\\\-0--0-x-10---|10-\\\\-0--0-x-10---|10-\\\\-0--0--*----------|

=========================================================================================

                                                                      
Db :---------------|-----------------|-----------------|--------------|
Ab :---------------|-----------------|-----------------|--------------|
E  :---------------|-----------------|-----------------|--------------|
B  :2--2--2-x/12---|12-\\\\-2--2-x/12---|12-\\\\-2--2-x/12---|12-\\\\-2--2-xxxx|
Gb :2--2--2-x/12---|12-\\\\-2--2-x/12---|12-\\\\-2--2-x/12---|12-\\\\-2--2-xxxx|
Db :0--0--0-x/10---|10-\\\\-0--0-x/10---|10-\\\\-0--0-x/10---|10-\\\\-0--0-xxxx|

Db :---------------|-----------------|-----------------|--------------|
Ab :---------------|-----------------|-----------------|--------------|
E  :---------------|-----------------|-----------------|--------------|
B  :----------12-~-|12-\\\\--------12-~-|12-\\\\--------12-~-|12-\\\\------xxxx|
Gb :-----------x---|-x-----------x---|-x-----------x---|-x--------xxxx|
Db :0--0--0-x-10-~-|10-\\\\-0--0-x-10-~-|10-\\\\-0--0-x-10-~-|10-\\\\-0--0-xxxx|

E  :---------------|-----------------|-----------------|--------------|
B  :---------------|-----------------|-----------------|--------------|
Gb :---------------|-----------------|-----------------|--------------|
Db :0--0--0-x-10---|10-\\\\-0--0-x-10---|10-\\\\-0--0-x-10---|10-\\\\-0--0-xxxx|

=========================================================================================

Outro
                                                                              
Db :------------|-------------------|----------------|------------------------|
Ab :------------|-------------------|----------------|------------------------|
E  :9--9--9--9--|12--12--12-/14-14--|16--16--16--19--|19-\\\\16-16--16-/21-21~-\\\\-|
B  :x--x--x--x--|-x---x---x------x--|-x---x---x---x--|-x------x---x---x--x----|
Gb :7--7--7--7--|10--10--10-/12-12--|14--14--14--17--|17-\\\\14-14--14-/19-19~-\\\\-|
Db :------------|-------------------|----------------|------------------------|

Db :------------|-------------------|----------------|------------------------|
Ab :------------|-------------------|----------------|------------------------|
E  :------------|-5---5---5---x-----|-------------7--|-7---x------7-/-9--9---9|
B  :7--7--7--7-x|-5---5---5---x--5--|-2---2---2-x-7--|-7---x--2---7-/-9--9---9|
Gb :7--7--7--7-x|-3---3---3---x--5--|-2---2---2-x-5--|-5---x--2---5-/-7--7---7|
Db :5--5--5--5-x|----------------3--|-0---0---0-x----|--------0---------------|

E  :------------|-------------------|----------------|------------------------|
B  :------------|-------------------|----------------|------------------------|
Gb :------------|-3---3---3---x-----|-------------5--|-5----------5---7--7---7|
Db :5--5--5--5-x|----------------3--|-0---0---0-x----|-----x--0---------------|

=========================================================================================

                                                             
Db :-------------|------------------------------|------------|
Ab :-------------|------------------------------|------------|
E  :9--9--9---9--|12-12-12-12-12-12-12-/14-14-\\\\-|------------|
B  :x--x--x---x--|-x--x--x--x--x--x--x------x---|2--*--------|
Gb :7--7--7---7--|10-10-10-10-10-10-10-/12-12-\\\\-|2--*--------|
Db :-------------|------------------------------|0--*--------|

Db :-------------|------------------------------|------------|
Ab :-------------|------------------------------|------------|
E  :-------------|-5--------5--------5----------|------------|
B  :7--7--7---7-x|-5--------5--------5---x--5---|2--*--------|
Gb :7--7--7---7-x|-3--------3--------3---x--5---|2--*--------|
Db :5--5--5---5-x|-----------------------x--3---|0--*--------|

E  :-------------|------------------------------|------------|
B  :-------------|------------------------------|------------|
Gb :-------------|-3--------3--------3----------|------------|
Db :5--5--5-5-5-x|-----------------------x--3---|0--*--------|


A Perfect Circle albums
2004 Emotive
2003 Thirteenth Step
2000 Mer de Noms
Thirteenth Step tabs
01The Package tabbass tab
02Weak and Powerless tabbass tab
03The Noose tabbass tab
04Blue tabbass tab
05Vanishing tabbass tab
06A Stranger tabbass tab
07The Outsider tabbass tab
08Crimes tabbass tab
09The Nurse Who Loved Me tabbass tab
10Pet tabbass tab
11Lullaby tabbass tab
12Gravity tabbass tab

 

1