Search tabs:
Browse artists: 0-9 | A | B | C | D | E | F | G | H | I | J | K | L | M | N | O | P | Q | R | S | T | U | V | W | X | Y | Z
/ AC/DC / '74 Jalbreak (1984) / Show Business guitar tab

tuning:standard
tabbed by:a crazy teenage rock and roll fan
artist:acdc
album:74 jailbreak
written by:angus young, malcom young, bon scott
year:(recorded 1975, released 1984)

key to tablature:
h=hammer on
p=pull off
\=slide down
/=slide up
~=vibrato
==let ring
r=release bend
b=bend string
x=mute note

intro (played by guitar two)
E|-------------------------------------------------------------|
B|-------------------------------------------------------------|
G|-------------------------------------------------------------|
D|-----------------------2-2-4-----2-2-4-----------------------|
A|---2-2-4-----2-2-4---0-0-0-0---0-0-0-0-----2-2-4-----2-2-4---|
E|-0-0-0-0---0-0-0-0-----------------------0-0-0-0---0-0-0-0---|

E|-------------------------------------------------------------|
B|-------------------------------------------------------------|
G|-------------------------------------------------------------|
D|-----------------------2-2-4-----2-2-4-----2-2-4-----2-2-4---|
A|---2-2-4-----2-2-4---0-0-0-0---0-0-0-0---0-0-0-0---0-0-0-0---|
E|-0-0-0-0---0-0-0-0-------------------------------------------|

E|---------------------------------------------------------------|
B|---------------------------------------------------------------|
G|---------------------------------------------------------------|
D|---------------------------------------------------2-2-2-2-2---|
A|---2-2-4-----2-2-4------2-2-4----2-2-4---4-4-4-4-4-0-0-0-0-0-2-|
E|-0-0-0-0---0-0-0-0---0-0-0-0---0-0-0-0---2-2-2-2-2-----------0-|

E|-12-12-12-10-10-10-8-8-8-7-7-7-7-7-|
B|-12-12-12-10-10-10-8-8-8-7-7-7-7-7-|
G|-----------------------------------|
D|-----------------------------------|
A|-----------------------------------|
E|-----------------------------------|

intro solo (played by guitar one while guitar two plays the intro)
E|-12-10-12===12-10-7-7===---7-7-10-7-5------------------|
B|------------------------10------------9b11r9-7p6p5-5-5-|
G|-------------------------------------------------------|
D|-------------------------------------------------------|
A|-------------------------------------------------------|
E|-------------------------------------------------------|

E|-9h10h12----12-------17-17p15p12-15p12----12-------17-15-12-17-|
B|---------12----14-12-------------------15----------------------|
G|---------------------------------------------11-12-------------|
D|---------------------------------------------------------------|
A|---------------------------------------------------------------|
E|---------------------------------------------------------------|

E|-1514p10----------12---------------------------------------------|
B|---------15p14p10----12-12-12-15-12-12-10-8--------11b12-10-8-12-|
G|--------------------------------------------10-8-9---------------|
D|-----------------------------------------------------------------|
A|-----------------------------------------------------------------|
E|-----------------------------------------------------------------|

E|------------------------------------------------|
B|-------15p12----12----17p15p12------------------|
G|-9-9-9-------12----12----------15p14p12---------|
D|----------------------------------------12-14-9-|
A|------------------------------------------------|
E|------------------------------------------------|
end solo

verse
E|---------------------------------------------|
B|---------------------------------------------|
G|---------------------------------------------|
D|---------------------5-5-5-5-5-5-5-5-5-5-5-5-|
A|---------------------5-5-5-5-5-5-5-5-5-5-5-5-|
E|-0-5-3-0---0-5-3-0---3-3-3-3-3-3-3-3-3-3-3-3-|

chorus
E|-------------------------------------------------------------|
B|-------------------------------------------------------------|
G|-------------------------------------------------------------|
D|---2-2-4-----2-2-4-----2-2-4-----2-2-4-----------------------|
A|-0-0-0-0---0-0-0-0---0-0-0-0---0-0-0-0-----2-2-4-----2-2-4---|
E|-----------------------------------------0-0-0-0---0-0-0-0---|

E|-------------------------------------12-12-12-10-10-10-8-8-8-7-7-7-|
B|-------------------------------------12-12-12-10-10-10-8-8-8-7-7-7-|
G|-------------------------------------------------------------------|
D|-------------------------------------------------------------------|
A|---2-2-4-----2-2-4-----------0-2-3-0-------------------------------|
E|-0-0-0-0---0-0-0-0---2-0-2-3---------------------------------------|

play the verse and chorus again.

guitar solo two (guitar one plays the chorus riff over this solo)
E|-----------------------------------------------------------|
B|-------------------------------------------14-14-7-7-12-12-|
G|----------------------------10-12p10p9-9-9-----------------|
D|-------12-14-14-14b15r14-12--------------------------------|
A|-12h14-----------------------------------------------------|
E|-----------------------------------------------------------|

E|-----------------------------12-12h15p14p12---------------------|
B|-8-5---5-5-5-5-3h5-5h8/10h12----------------12-12-10p8h10p8-8===|
G|-----7----------------------------------------------------------|
D|----------------------------------------------------------------|
A|----------------------------------------------------------------|
E|----------------------------------------------------------------|

E|----------------------------------|
B|-------------------12-12----------|
G|-------------------------12-15----|
D|-------------------------------14-|
A|-7-6-5-3-3-2-0--------------------|
E|---------------3~~~---------------|

E|-------------------------------------------------------|
B|-------------------------------------------------------|
G|-12-12-12-12-12-12-12-12-12-12-12-12-14-14-14-14-14-14-|
D|-------------------------------------------------------|
A|-------------------------------------------------------|
E|-------------------------------------------------------|

E|-------------------------------------------------------|
B|-------------------------------------------------------|
G|-14-14-14-14-14-14-16-16-16-16-16-16-16-16-16-16-16-16-|
D|-------------------------------------------------------|
A|-------------------------------------------------------|
E|-------------------------------------------------------|

E|-------17-17-17-17-15-15b16r15-11-12-15-15-14-15-15-19p15-15-|
B|-------------------------------------------------------------|
G|-16-16-------------------------------------------------------|
D|-------------------------------------------------------------|
A|-------------------------------------------------------------|
E|-------------------------------------------------------------|

E|-15-19-15-12-7-12-12-10-9-----------------12-9-7-10-12-|
B|--------------------------12-10-9-------8--------------|
G|----------------------------------9-7-9----------------|
D|-------------------------------------------------------|
A|-------------------------------------------------------|
E|-------------------------------------------------------|

E|----12-12-12--15p14p12h14p12-16-19-16-16----------------|
B|-15--------------------------------------12-------------|
G|--------------------------------------------14-12-14-12-|
D|--------------------------------------------------------|
A|--------------------------------------------------------|
E|--------------------------------------------------------|

E|-------------------------------------------------------------|
B|-------------------------------------------------------------|
G|-12-9-12-12--9h12-12-9h12-12-9h12-12-9h12-12-9h12-12-9h12-12-|
D|-------------------------------------------------------------|
A|-------------------------------------------------------------|
E|-------------------------------------------------------------|

E|---------------------------------------------------------|
B|---------------------------------------------------------|
G|-9h12-12-9h12-12-9h12-12-9h12-12-9h12-12-9h12-12-9p7h9-9/|
D|---------------------------------------------------------|
A|---------------------------------------------------------|
E|---------------------------------------------------------|

E|-12~~~~~~~~10-12-12p10p9------------------19===17===19===|
B|-------------------------12p10-12-10-9\------------------|
G|---------------------------------------------------------|
D|---------------------------------------------------------|
A|---------------------------------------------------------|
E|---------------------------------------------------------|

E|-17-19-19-19-17-16-17-16-17-16\-15-17-15h17p15----------|
B|-----------------------------------------------15-15b17-|
G|--------------------------------------------------------|
D|--------------------------------------------------------|
A|--------------------------------------------------------|
E|--------------------------------------------------------|

E|-------------------|
B|-15h17p15----------|
G|----------16-------|
D|-------------------|
A|-------------15-14-|
E|-------------------|
end solo

play the verse and chorus twice

guitar solo three (guitar two will play the chorus riff over this)
E|---------------------------12-10-12-7h9h10/12----------|
B|-11b12-12-12~~~-------------------------------10-12-10-|
G|---------------12-11-9-9-9-----------------------------|
D|-------------------------------------------------------|
A|-------------------------------------------------------|
E|-------------------------------------------------------|

E|--------------------------------------------------------|
B|--------------------------------------------------------|
G|-12-9-9/----------15-17-19-19-18-19-19---------18-19-19-|
D|---------12-15-17----------------------18-19-9----------|
A|--------------------------------------------------------|
E|--------------------------------------------------------|

E|------------------------------------17-15-17p15\12-12-12-12-10-12-|
B|----------------17-17----17===------------------------------------|
G|----------16-18-------18------17-17-------------------------------|
D|-18-19-19---------------------------------------------------------|
A|------------------------------------------------------------------|
E|------------------------------------------------------------------|

E|-----------------7h9h10/12-------------------------------|
B|-12h15---------------------------------------------12-12-|
G|-------12------------------14-12-14-12-12h15p12h15-------|
D|----------17-14\-----------------------------------------|
A|---------------------------------------------------------|
E|---------------------------------------------------------|

E|----------------------------------------------------------------|
B|----------------------------------------------------------------|
G|-12-15----12-12-12-12-12-12-12-12-12-12-12-12-14-14-14-14-14-14-|
D|-------14-------------------------------------------------------|
A|----------------------------------------------------------------|
E|----------------------------------------------------------------|

E|----------------------------------------------------------------|
B|----------------------------------------------------------------|
G|-14-14-14-14-14-14-16-16-16-16-16-16-16-16-16-16-16-16-16-16-16-|
D|----------------------------------------------------------------|
A|----------------------------------------------------------------|
E|----------------------------------------------------------------|

E|-------17-17-17-17--15-15b16r15-------12-12---------------|
B|--------------------------------15-15-------15-12---------|
G|-16-16--------------------------------------------14-12-9-|
D|----------------------------------------------------------|
A|----------------------------------------------------------|
E|----------------------------------------------------------|

E|-------------------12~~~~~~~~---------------------------|
B|----15----12-12-12-----------12-12-15-12----12-------12-|
G|-14----14--------------------------------12----14-12----|
D|--------------------------------------------------------|
A|--------------------------------------------------------|
E|--------------------------------------------------------|

E|-------------10-9-7-7-7~~~~~~~~|
B|-------------------------------|
G|-14p12-12-12-------------------|
D|-------------------------------|
A|-------------------------------|
E|-------------------------------|
end solo

play the verse and chorus twice

guitar solo four (same old same old)
E|-10-12-12-15b16r15-11-12-15-15-14-15-15-19p15-15-15-19-15-12-7-|
B|---------------------------------------------------------------|
G|---------------------------------------------------------------|
D|---------------------------------------------------------------|
A|---------------------------------------------------------------|
E|---------------------------------------------------------------|

E|-12-12-10-9-----------------12-9-7-10-12----12-12-12-|
B|------------12-10-9-------8--------------15----------|
G|--------------------9-7-9----------------------------|
D|-----------------------------------------------------|
A|-----------------------------------------------------|
E|-----------------------------------------------------|

E|-15p14p12h14p12-16-19-16-16----------------|
B|----------------------------12-------------|
G|-------------------------------14-12-14-12-|
D|-------------------------------------------|
A|-------------------------------------------|
E|-------------------------------------------|
end solo

then just play the chorus many times

outro solo (solo five)
E|-12-10-12---12-10--19-12--7-7h9h10-12-12---------|
B|-----------------------------------------12-10---|
G|-----------------------------------------------9-|
D|-------------------------------------------------|
A|-------------------------------------------------|
E|-------------------------------------------------|

E|-12-12p10p9--10p7-12-7-------------------------------------|
B|-----------------------5-----------------------------------|
G|-------------------------12h14p12--------------------------|
D|----------------------------------12h14p12-----------------|
A|-------------------------------------------12h14p12========|
E|-----------------------------------------------------------|

guitar two ending
E|-----------------------|
B|-----------------------|
G|-----------------------|
D|-----------------------|
A|-------------0-0-2---2-|
E|-0-0-2-2-3-3-------3-0-|

thats it

LONG LIVE ROCK AND ROLL!!!!!


AC/DC albums
2000 Stiff Upper Lip
1995 Ballbreaker
1990 The Razor's Edge
1988 Blow Up Your Video
1986 Who Made Who
1985 Fly On The Wall
1984 '74 Jalbreak
1983 Flick of the Switch
1981 For Those About To Rock
1980 Back in Black
1979 Highway To Hell
1978 Powerage
1977 Let There Be Rock
1976 Dirty Deeds Done Dirt Cheap
1976 High Voltage
'74 Jalbreak tabs
01Jailbreak tabbass tab
02You Ain't Got A Hold On Me tabbass tab
03Show Business tabbass tab
04Soul Stripper tabbass tab
05Baby Please Don't Go tabbass tab

 

1