Search tabs:
Browse artists: 0-9 | A | B | C | D | E | F | G | H | I | J | K | L | M | N | O | P | Q | R | S | T | U | V | W | X | Y | Z
/ / / guitar tab

Reefer Head Woman(from NIGHT IN THE RUTS)-

	I don't have much of this at all, only what I think is the opening/signature riff. I'm posting it because I think it's better than nothing. I should be able to add more later, though. You're welcome to beat me to it if you can.

   intro(it sounds like a wah on the opening note. Maybe used as filter?)-
   E-------------------------------------------------|
   B----------------------------------------5--------|
   G----------------------------------5--7-----------|
   D---------------------5--6--7---7-----------------|
   A--0---0----5--7---7------------------------------|
   E--------7----------------------------------------|

   I got a Reeeeeeefer Headed Woman...
   E----------------------------------5\(1)----------|
   B----------------------------------5\(1)----------|
   G----------------------------------5\(1)----------|
   D-------------------------------------------------|
   A-------------------------------------------------|
   E-------------------------------------------------|

   Send all comments, questions, corrections and additions to meunier.1@osu.edu  

   Transcribed by Bryson Meunier




albums
tabs

 

1