Search tabs:
Browse artists: 0-9 | A | B | C | D | E | F | G | H | I | J | K | L | M | N | O | P | Q | R | S | T | U | V | W | X | Y | Z
/ / / guitar tab

INTRO (not sure how many times to play each chord, just listen.)
----------------------------------------
----------------------------------------
---------9-9-9-9-------------4-4-4-4----
-9-9-9-9------------2-2-2-2--2-2-2-2-
-7-7-7-7-7-7-7-7----0-0-0-0-----------
-------------------------------------

--------------------------------------------
--------------------------------------------
----------6-6-6--4-4-4------------------x-x-x-----
-6-6-6-6-----------------2-2-2---4-4-4--x-x-x--
-4-4-4-4--4-4-4--2-2-2---0-0-0---2-2-2--x-x-x--
-------------------------------------------



VERSES
-------------------------------------------------------
-------------------------------------------------------
-------------------------------6-6-6--4-4-4--------------
-9-9-9-9----2-2-2-2---6-6-6-6-----------------2-2-2---4-4-4---
-7-7-7-7----0-0-0-0---4-4-4-4--4-4-4--2-2-2---0-0-0---2-2-2---
--------------------------------------------------------------------

CHORUS
"she was passin through to climb a hill...."
--------------------------------------------------------
-------------------------------------------------
--------------------------------------------------
-9-9-9----------------------------------------------
-7-7-7----9-9-9---7-7-7-7-7----------------------
----------7-7-7---5-5-5-5-5-----------------------

         "my better half was ......"
--------------------------------------------------------
------------------------------------------------------
-----------6-6-6---4-4-4---------------------------
-6-6-6-6------------------2-2--4-4--------------
-4-4-4-4---4-4-4---2-2-2--0-0--2-2-------------------
------------------------------------------------------

"Prayin....."
-----------------------------------------------------
------------------------------------------------------
--------9-9--8-8------------------------------------
-9-9-9-------------6-6-6----4---2------------------
-7-7-7--7-7--6-6---4-4-4----2---0-----------------------------------------------------------------------
----------------------------------------------------------------------------------------------------

BRIDGE (no words part.....listen for how many times to hit each chord.)
----------------------------------------------------------------------------------------------------
----------------------------------------------------------------------------------------------------
--9--8--6--4-------------9--11--13---6---4-----------------------------------------------------------------------
----------------------------------------------------------------------------------------------------
--7--6--4--2-------------7---9--11---4---2----------------------------------------------------------------
----------------------------------------------------------------------------------------------------


albums
tabs

 

1