Search tabs:
Browse artists: 0-9 | A | B | C | D | E | F | G | H | I | J | K | L | M | N | O | P | Q | R | S | T | U | V | W | X | Y | Z
/ Anti-Flag / A New Kind of Army (1999) / A New Kind of Army guitar tab

this is how i play the song but i dont know the guitar solo in the middle but o well
 x         mute
...pm...    palm mute

Intro:
e|-----------------|----------------|----------------|----------------|
b|-----------------|----------------|----------------|----------------|
g|-----------------|----------------|9---------------|9---------------|
d|11---------------|7---------------|9---------------|9---------------|
a|11---------------|7---------------|7---------------|6---------------|
E|9----------------|5---------------|----------------|----------------|
 
e|-----------------|----------------|----------------|----------------|
b|-----------------|----------------|----------------|----------------|
g|-----------------|----------------|9---------------|9---------------|
d|11---------------|7---------------|9---------------|9---------------|
a|11---------------|7---------------|7---------------|6---------------|
E|9----------------|5---------------|----------------|----------------|
 
e|------------------------|----------------|----------------|----------------|
b|------------------------|----------------|----------------|----------------|
g|------------------------|----------------|9-9-9-9-9-9-9-9-|9-9-9-9-9-9-9-9-|
d|11-11-11-11-11-11-11-11-|7-7-7-7-7-7-7-7-|9-9-9-9-9-9-9-9-|9-9-9-9-9-9-9-9-|
a|11-11-11-11-11-11-11-11-|7-7-7-7-7-7-7-7-|7-7-7-7-7-7-7-7-|6-6-6-6-6-6-6-6-|
E|9--9--9--9--9--9--9--9--|5-5-5-5-5-5-5-5-|----------------|----------------|
 |.............................pm..............   ...   ........   ...   ....|

e|------------------------|----------------|----------------|----------------|
b|------------------------|----------------|----------------|----------------|
g|------------------------|----------------|9-9-9-9-9-9-9-9-|9-9-9-9-9-9-9-9-|
d|11-11-11-11-11-11-11-11-|7-7-7-7-7-7-7-7-|9-9-9-9-9-9-9-9-|9-9-9-9-9-9-9-9-|
a|11-11-11-11-11-11-11-11-|7-7-7-7-7-7-7-7-|7-7-7-7-7-7-7-7-|6-6-6-6-6-6-6-6-|
E|9--9--9--9--9--9--9--9--|5-5-5-5-5-5-5-5-|----------------|----------------|
 |.............................pm..............   ...   ........   ...   ....| 

Chorus: 
e|----------------------|----------------|----------------|----------------|
b|----------------------|----------------|----9-----------|----9-----------|
g|----------------------|----------------|--------9-------|--------9-------|
d|11---11---11-11-11-11-|7--77--7--7-7-7-|------------9---|------------9---|
a|11---11---11-11-11-11-|7--77--7--7-7-7-|7---------------|6---------------|
E|9----9----9--9--9--9--|5--55--5--5-5-5-|----------------|----------------|

e|----------------------|----------------|----------------|----------------|
b|----------------------|----------------|----9-----------|----9-----------|
g|----------------------|----------------|--------9-------|--------9-------|
d|11---11---11-11-11-11-|7--77--7--7-7-7-|------------9---|------------9---|
a|11---11---11-11-11-11-|7--77--7--7-7-7-|7---------------|6---------------|
E|9----9----9--9--9--9--|5--55--5--5-5-5-|----------------|----------------|

Verse:
e|------------------|----------------|------------------|----------------|
b|------------------|----------------|------------------|----------------|
g|------------------|9-9-x-x-9-9-x-x-|------------------|9-9-x-x-9-9-x-x-|
d|11-11-x-x-7-7-x-x-|9-9-x-x-9-9-x-x-|11-11-x-x-7-7-x-x-|9-9-x-x-9-9-x-x-|
a|11-11-x-x-7-7-x-x-|7-7-x-x-6-6-x-x-|11-11-x-x-7-7-x-x-|7-7-x-x-6-6-x-x-|
E|9--9--x-x-5-5-x-x-|----------------|9--9--x-x-5-5-x-x-|----------------|
 |1  &  2 & 3 & 4 & |1 & 2 & 3 & 4 & |1  &  2 & 3 & 4 & |1 & 2 & 3 & 4 & |

e|------------------|----------------|------------------|----------------|
b|------------------|----------------|------------------|----------------|
g|------------------|9-9-x-x-9-9-x-x-|------------------|9-9-x-x-9-9-x-x-|
d|11-11-x-x-7-7-x-x-|9-9-x-x-9-9-x-x-|11-11-x-x-7-7-x-x-|9-9-x-x-9-9-x-x-|
a|11-11-x-x-7-7-x-x-|7-7-x-x-6-6-x-x-|11-11-x-x-7-7-x-x-|7-7-x-x-6-6-x-x-|
E|9--9--x-x-5-5-x-x-|----------------|9--9--x-x-5-5-x-x-|----------------|
 |1  &  2 & 3 & 4 & |1 & 2 & 3 & 4 & |1  &  2 & 3 & 4 & |1 & 2 & 3 & 4 & |

e|------------------|----------------|------------------|----------------|
b|------------------|----------------|------------------|----------------|
g|------------------|9-9-x-x-9-9-x-x-|------------------|9-9-x-x-9-9-x-x-|
d|11-11-x-x-7-7-x-x-|9-9-x-x-9-9-x-x-|11-11-x-x-7-7-x-x-|9-9-x-x-9-9-x-x-|
a|11-11-x-x-7-7-x-x-|7-7-x-x-6-6-x-x-|11-11-x-x-7-7-x-x-|7-7-x-x-6-6-x-x-|
E|9--9--x-x-5-5-x-x-|----------------|9--9--x-x-5-5-x-x-|----------------|
 |1  &  2 & 3 & 4 & |1 & 2 & 3 & 4 & |1  &  2 & 3 & 4 & |1 & 2 & 3 & 4 & |

e|-------------------|----------------|-------------------|----------------|
b|-------------------|----------------|-------------------|----------------|
g|-------------------|9-9-9---9-9-9---|-------------------|9-9-9---9-9-9---|
d|11-11-11---7-7-7---|9-9-9---9-9-9---|11-11-11---7-7-7---|9-9-9---9-9-9---|
a|11-11-11---7-7-7---|7-7-7---6-6-6---|11-11-11---7-7-7---|7-7-7---6-6-6---|
E|9--9--9----5-5-5---|----------------|9--9--9----5-5-5---|----------------|
 |.pm.       ...     |pm.     ...     |.pm.       ...     |pm.     ...     |

e|-------------------|----------------|-------------------|----------------|
b|-------------------|----------------|-------------------|----------------|
g|-------------------|9-9-9---9-9-9---|-------------------|9-9-9---9-9-9---|
d|11-11-11---7-7-7---|9-9-9---9-9-9---|11-11-11---7-7-7---|9-9-9---9-9-9---|
a|11-11-11---7-7-7---|7-7-7---6-6-6---|11-11-11---7-7-7---|7-7-7---6-6-6---|
E|9--9--9----5-5-5---|----------------|9--9--9----5-5-5---|----------------|
 |.pm.       ...     |pm.     ...     |.pm.       ...     |pm.     ...     |

Chorus:
e|----------------------|----------------|----------------|----------------|
b|----------------------|----------------|----9-----------|----9-----------|
g|----------------------|----------------|--------9-------|--------9-------|
d|11---11---11-11-11-11-|7--77--7--7-7-7-|------------9---|------------9---|
a|11---11---11-11-11-11-|7--77--7--7-7-7-|7---------------|6---------------|
E|9----9----9--9--9--9--|5--55--5--5-5-5-|----------------|----------------|

e|----------------------|----------------|----------------|----------------|
b|----------------------|----------------|----9-----------|----9-----------|
g|----------------------|----------------|--------9-------|--------9-------|
d|11---11---11-11-11-11-|7--77--7--7-7-7-|------------9---|------------9---|
a|11---11---11-11-11-11-|7--77--7--7-7-7-|7---------------|6---------------|
E|9----9----9--9--9--9--|5--55--5--5-5-5-|----------------|----------------|

e|------------------|----------------|------------------|----------------|
b|------------------|----------------|------------------|----------------|
g|------------------|9-9-x-x-9-9-x-x-|------------------|9-9-x-x-9-9-x-x-|
d|11-11-x-x-7-7-x-x-|9-9-x-x-9-9-x-x-|11-11-x-x-7-7-x-x-|9-9-x-x-9-9-x-x-|
a|11-11-x-x-7-7-x-x-|7-7-x-x-6-6-x-x-|11-11-x-x-7-7-x-x-|7-7-x-x-6-6-x-x-|
E|9--9--x-x-5-5-x-x-|----------------|9--9--x-x-5-5-x-x-|----------------|
 |1  &  2 & 3 & 4 & |1 & 2 & 3 & 4 & |1  &  2 & 3 & 4 & |1 & 2 & 3 & 4 & |

e|-----------------|----------------|----------------|----------------|
b|-----------------|----------------|----------------|----------------|
g|-----------------|----------------|----------------|----------------|
d|11---------------|----------------|----------------|----------------|
a|11---------------|----------------|----------------|----------------|
E|9----------------|----------------|----------------|----------------|

Rythem Guitar during solo: (sorry i have no clue how to play the guitar solo so here is just the rythem which is goin on in the background)
e|----------------------|----------------|----------------|----------------|
b|----------------------|----------------|----9-----------|----9-----------|
g|----------------------|----------------|--------9-------|--------9-------|
d|11---11---11-11-11-11-|7--77--7--7-7-7-|------------9---|------------9---|
a|11---11---11-11-11-11-|7--77--7--7-7-7-|7---------------|6---------------|
E|9----9----9--9--9--9--|5--55--5--5-5-5-|----------------|----------------|

e|----------------------|----------------|----------------|----------------|
b|----------------------|----------------|----9-----------|----9-----------|
g|----------------------|----------------|--------9-------|--------9-------|
d|11---11---11-11-11-11-|7--77--7--7-7-7-|------------9---|------------9---|
a|11---11---11-11-11-11-|7--77--7--7-7-7-|7---------------|6---------------|
E|9----9----9--9--9--9--|5--55--5--5-5-5-|----------------|----------------|

e|------------------|----------------|------------------|----------------|
b|------------------|----------------|------------------|----------------|
g|------------------|9-9-x-x-9-9-x-x-|------------------|9-9-x-x-9-9-x-x-|
d|11-11-x-x-7-7-x-x-|9-9-x-x-9-9-x-x-|11-11-x-x-7-7-x-x-|9-9-x-x-9-9-x-x-|
a|11-11-x-x-7-7-x-x-|7-7-x-x-6-6-x-x-|11-11-x-x-7-7-x-x-|7-7-x-x-6-6-x-x-|
E|9--9--x-x-5-5-x-x-|----------------|9--9--x-x-5-5-x-x-|----------------|
 |1  &  2 & 3 & 4 & |1 & 2 & 3 & 4 & |1  &  2 & 3 & 4 & |1 & 2 & 3 & 4 & |

e|------------------|----------------|------------------|----------------|
b|------------------|----------------|------------------|----------------|
g|------------------|9-9-x-x-9-9-x-x-|------------------|9-9-x-x-9-9-x-x-|
d|11-11-x-x-7-7-x-x-|9-9-x-x-9-9-x-x-|11-11-x-x-7-7-x-x-|9-9-x-x-9-9-x-x-|
a|11-11-x-x-7-7-x-x-|7-7-x-x-6-6-x-x-|11-11-x-x-7-7-x-x-|7-7-x-x-6-6-x-x-|
E|9--9--x-x-5-5-x-x-|----------------|9--9--x-x-5-5-x-x-|----------------|
 |1  &  2 & 3 & 4 & |1 & 2 & 3 & 4 & |1  &  2 & 3 & 4 & |1 & 2 & 3 & 4 & |


Verse:
e|------------------|----------------|------------------|----------------|
b|------------------|----------------|------------------|----------------|
g|------------------|9-9-x-x-9-9-x-x-|------------------|9-9-x-x-9-9-x-x-|
d|11-11-x-x-7-7-x-x-|9-9-x-x-9-9-x-x-|11-11-x-x-7-7-x-x-|9-9-x-x-9-9-x-x-|
a|11-11-x-x-7-7-x-x-|7-7-x-x-6-6-x-x-|11-11-x-x-7-7-x-x-|7-7-x-x-6-6-x-x-|
E|9--9--x-x-5-5-x-x-|----------------|9--9--x-x-5-5-x-x-|----------------|
 |1  &  2 & 3 & 4 & |1 & 2 & 3 & 4 & |1  &  2 & 3 & 4 & |1 & 2 & 3 & 4 & |

e|------------------|----------------|------------------|----------------|
b|------------------|----------------|------------------|----------------|
g|------------------|9-9-x-x-9-9-x-x-|------------------|9-9-x-x-9-9-x-x-|
d|11-11-x-x-7-7-x-x-|9-9-x-x-9-9-x-x-|11-11-x-x-7-7-x-x-|9-9-x-x-9-9-x-x-|
a|11-11-x-x-7-7-x-x-|7-7-x-x-6-6-x-x-|11-11-x-x-7-7-x-x-|7-7-x-x-6-6-x-x-|
E|9--9--x-x-5-5-x-x-|----------------|9--9--x-x-5-5-x-x-|----------------|
 |1  &  2 & 3 & 4 & |1 & 2 & 3 & 4 & |1  &  2 & 3 & 4 & |1 & 2 & 3 & 4 & |

e|-------------------|----------------|-------------------|----------------|
b|-------------------|----------------|-------------------|----------------|
g|-------------------|9-9-9---9-9-9---|-------------------|9-9-9---9-9-9---|
d|11-11-11---7-7-7---|9-9-9---9-9-9---|11-11-11---7-7-7---|9-9-9---9-9-9---|
a|11-11-11---7-7-7---|7-7-7---6-6-6---|11-11-11---7-7-7---|7-7-7---6-6-6---|
E|9--9--9----5-5-5---|----------------|9--9--9----5-5-5---|----------------|
 |.pm.       ...     |pm.     ...     |.pm.       ...     |pm.     ...     |

e|-------------------|----------------|-------------------|----------------|
b|-------------------|----------------|-------------------|----------------|
g|-------------------|9-9-9---9-9-9---|-------------------|9-9-9---9-9-9---|
d|11-11-11---7-7-7---|9-9-9---9-9-9---|11-11-11---7-7-7---|9-9-9---9-9-9---|
a|11-11-11---7-7-7---|7-7-7---6-6-6---|11-11-11---7-7-7---|7-7-7---6-6-6---|
E|9--9--9----5-5-5---|----------------|9--9--9----5-5-5---|----------------|
 |.pm.       ...     |pm.     ...     |.pm.       ...     |pm.     ...     |

Chorus:
e|----------------------|----------------|----------------|----------------|
b|----------------------|----------------|----9-----------|----9-----------|
g|----------------------|----------------|--------9-------|--------9-------|
d|11---11---11-11-11-11-|7--77--7--7-7-7-|------------9---|------------9---|
a|11---11---11-11-11-11-|7--77--7--7-7-7-|7---------------|6---------------|
E|9----9----9--9--9--9--|5--55--5--5-5-5-|----------------|----------------|

e|----------------------|----------------|----------------|----------------|
b|----------------------|----------------|----9-----------|----9-----------|
g|----------------------|----------------|--------9-------|--------9-------|
d|11---11---11-11-11-11-|7--77--7--7-7-7-|------------9---|------------9---|
a|11---11---11-11-11-11-|7--77--7--7-7-7-|7---------------|6---------------|
E|9----9----9--9--9--9--|5--55--5--5-5-5-|----------------|----------------|

e|----------------------|----------------|----------------|----------------|
b|----------------------|----------------|----9-----------|----9-----------|
g|----------------------|----------------|--------9-------|--------9-------|
d|11---11---11-11-11-11-|7--77--7--7-7-7-|------------9---|------------9---|
a|11---11---11-11-11-11-|7--77--7--7-7-7-|7---------------|6---------------|
E|9----9----9--9--9--9--|5--55--5--5-5-5-|----------------|----------------|

e|----------------------|----------------|----------------|----------------|
b|----------------------|----------------|----9-----------|----9-----------|
g|----------------------|----------------|--------9-------|--------9-------|
d|11---11---11-11-11-11-|7--77--7--7-7-7-|------------9---|------------9---|
a|11---11---11-11-11-11-|7--77--7--7-7-7-|7---------------|6---------------|
E|9----9----9--9--9--9--|5--55--5--5-5-5-|----------------|----------------|

Bridge:
e|-----------------|----------------|----------------|----------------|
b|-----------------|----------------|----------------|----------------|
g|-----------------|----------------|----------------|----------------|
d|11---------------|----------------|----------------|----------------|
a|11---------------|----------------|----------------|----------------|
E|9----------------|----------------|----------------|----------------|

e|-----------------|----------------|----------------|----------------|
b|-----------------|----------------|----------------|----------------|
g|-----------------|----------------|----------------|----------------|
d|11---------------|----------------|----------------|----------------|
a|11---------------|----------------|----------------|----------------|
E|9----------------|----------------|----------------|----------------|

e|-----------------|----------------|------------------------|---------------------|
b|-----------------|----------------|------------------------|---------------------|
g|-----------------|----------------|------------------------|---------------------|
d|11---------------|----------------|11-11-11-11-11-11-11-11-|11-11-11-11-11-11-11-|
a|11---------------|----------------|11-11-11-11-11-11-11-11-|11-11-11-11-11-11-11-|
E|9----------------|----------------|9--9--9--9--9--9--9--9--|9--9--9--9--9--9--9--|
                                    |...........pm.................pm..............|

e|-----------------|----------------|------------------------|---------------------|
b|-----------------|----------------|------------------------|---------------------|
g|-----------------|----------------|------------------------|---------------------|
d|11---------------|----------------|11-11-11-11-11-11-11-11-|11-11-11-11-11-11-11-|
a|11---------------|----------------|11-11-11-11-11-11-11-11-|11-11-11-11-11-11-11-|
E|9----------------|----------------|9--9--9--9--9--9--9--9--|9--9--9--9--9--9--9--|
                                    |...........pm.................pm..............|

e|-----------------|----------------|------------------------|---------------------|
b|-----------------|----------------|------------------------|---------------------|
g|-----------------|----------------|------------------------|---------------------|
d|11---------------|----------------|11-11-11-11-11-11-11-11-|11-11-11-11-11-11-11-|
a|11---------------|----------------|11-11-11-11-11-11-11-11-|11-11-11-11-11-11-11-|
E|9----------------|----------------|9--9--9--9--9--9--9--9--|9--9--9--9--9--9--9--|
                                    |...........pm.................pm..............|

e|------------------|----------------|------------------|----------------|
b|------------------|----------------|------------------|----------------|
g|------------------|9-9-x-x-9-9-x-x-|------------------|9-9-x-x-9-9-x-x-|
d|11-11-x-x-7-7-x-x-|9-9-x-x-9-9-x-x-|11-11-x-x-7-7-x-x-|9-9-x-x-9-9-x-x-|
a|11-11-x-x-7-7-x-x-|7-7-x-x-6-6-x-x-|11-11-x-x-7-7-x-x-|7-7-x-x-6-6-x-x-|
E|9--9--x-x-5-5-x-x-|----------------|9--9--x-x-5-5-x-x-|----------------|
 |1  &  2 & 3 & 4 & |1 & 2 & 3 & 4 & |1  &  2 & 3 & 4 & |1 & 2 & 3 & 4 & |

e|------------------|----------------|------------------|----------------|
b|------------------|----------------|------------------|----------------|
g|------------------|9-9-x-x-9-9-x-x-|------------------|9-9-x-x-9-9-x-x-|
d|11-11-x-x-7-7-x-x-|9-9-x-x-9-9-x-x-|11-11-x-x-7-7-x-x-|9-9-x-x-9-9-x-x-|
a|11-11-x-x-7-7-x-x-|7-7-x-x-6-6-x-x-|11-11-x-x-7-7-x-x-|7-7-x-x-6-6-x-x-|
E|9--9--x-x-5-5-x-x-|----------------|9--9--x-x-5-5-x-x-|----------------|
 |1  &  2 & 3 & 4 & |1 & 2 & 3 & 4 & |1  &  2 & 3 & 4 & |1 & 2 & 3 & 4 & |

e|------------------|----------------|------------------|----------------|
b|------------------|----------------|------------------|----------------|
g|------------------|9-9-x-x-9-9-x-x-|------------------|9-9-x-x-9-9-x-x-|
d|11-11-x-x-7-7-x-x-|9-9-x-x-9-9-x-x-|11-11-x-x-7-7-x-x-|9-9-x-x-9-9-x-x-|
a|11-11-x-x-7-7-x-x-|7-7-x-x-6-6-x-x-|11-11-x-x-7-7-x-x-|7-7-x-x-6-6-x-x-|
E|9--9--x-x-5-5-x-x-|----------------|9--9--x-x-5-5-x-x-|----------------|
 |1  &  2 & 3 & 4 & |1 & 2 & 3 & 4 & |1  &  2 & 3 & 4 & |1 & 2 & 3 & 4 & |

e|----------------|----------------|------------------|----------------|
b|----------------|----------------|------------------|----------------|
g|----------------|----------------|------------------|9-9-x-x-9-9-x-x-|
d|11--------------|----------------|11-11-x-x-7-7-x-x-|9-9-x-x-9-9-x-x-|
a|11--------------|----------------|11-11-x-x-7-7-x-x-|7-7-x-x-6-6-x-x-|
E|9---------------|----------------|9--9--x-x-5-5-x-x-|----------------|
 |1 & 2 & 3 & 4 & |1 & 2 & 3 & 4 & |1  &  2 & 3 & 4 & |1 & 2 & 3 & 4 & |

Chorus:
e|----------------------|----------------|----------------|----------------|
b|----------------------|----------------|----9-----------|----9-----------|
g|----------------------|----------------|--------9-------|--------9-------|
d|11---11---11-11-11-11-|7--77--7--7-7-7-|------------9---|------------9---|
a|11---11---11-11-11-11-|7--77--7--7-7-7-|7---------------|6---------------|
E|9----9----9--9--9--9--|5--55--5--5-5-5-|----------------|----------------|

e|----------------------|----------------|----------------|----------------|
b|----------------------|----------------|----9-----------|----9-----------|
g|----------------------|----------------|--------9-------|--------9-------|
d|11---11---11-11-11-11-|7--77--7--7-7-7-|------------9---|------------9---|
a|11---11---11-11-11-11-|7--77--7--7-7-7-|7---------------|6---------------|
E|9----9----9--9--9--9--|5--55--5--5-5-5-|----------------|----------------|

e|----------------------|----------------|----------------|----------------|
b|----------------------|----------------|----9-----------|----9-----------|
g|----------------------|----------------|--------9-------|--------9-------|
d|11---11---11-11-11-11-|7--77--7--7-7-7-|------------9---|------------9---|
a|11---11---11-11-11-11-|7--77--7--7-7-7-|7---------------|6---------------|
E|9----9----9--9--9--9--|5--55--5--5-5-5-|----------------|----------------|

e|----------------------|----------------|----------------|----------------|
b|----------------------|----------------|----9-----------|----9-----------|
g|----------------------|----------------|--------9-------|--------9-------|
d|11---11---11-11-11-11-|7--77--7--7-7-7-|------------9---|------------9---|
a|11---11---11-11-11-11-|7--77--7--7-7-7-|7---------------|6---------------|
E|9----9----9--9--9--9--|5--55--5--5-5-5-|----------------|----------------|

e|------------------|----------------|------------------|----------------|
b|------------------|----------------|------------------|----------------|
g|------------------|9-9-x-x-9-9-x-x-|------------------|9-9-x-x-9-9-x-x-|
d|11-11-x-x-7-7-x-x-|9-9-x-x-9-9-x-x-|11-11-x-x-7-7-x-x-|9-9-x-x-9-9-x-x-|
a|11-11-x-x-7-7-x-x-|7-7-x-x-6-6-x-x-|11-11-x-x-7-7-x-x-|7-7-x-x-6-6-x-x-|
E|9--9--x-x-5-5-x-x-|----------------|9--9--x-x-5-5-x-x-|----------------|
 |1  &  2 & 3 & 4 & |1 & 2 & 3 & 4 & |1  &  2 & 3 & 4 & |1 & 2 & 3 & 4 & |

i think thats it the rythems might be wrong and i might of said to do one of the 
riffs too long or not long enough but you get the point here are some lyrics.

LOOK BACK...on history, nothing much has changed
THOUSANDS...of soldiers of all countries, all marching the same
Every nation's leader says that our side is right
Every nation's leader says the time has come to fight
But they use the common people, to settle their scores
It's time that we refuse to fight in any of their wars!

We're looking to start a new kind of army, (that's) too smart to fight, too
smart to die
We're looking to start a new kind of army, (that's) too smart to fight, too
smart to kill...
for you!

JOIN NOW...the ranks of all nations who refuse to go to war
REFUSE...to pull the trigger of a gun for leaders 'round the world
I'd rather fight to spread some tolerance and unity
Than buy into their nationalistic brainwashing
Killing mothers, fathers, sisters, brothers, common human beings
Not savages but people, like you, like me!

We're looking to start a new kind of army, (that's) too smart to fight, too
smart to die
We're looking to start a new kind of army, (that's) too smart to fight, too
smart to kill...
for you!
We're looking for a few good men
We're looking for a few good womyn
Who are not afraid to fight against tyranny
But refuse to fight...with tyranny

REFUSE!!!

We're looking to start a new kind of army, (that's) too smart to fight, too
smart to die
We're looking to start a new kind of army, (that's) too smart to fight, too
smart to kill...
for you!


Anti-Flag albums
2003 Terror State
2002 Mobilize
2001 Underground Network
1999 A New Kind of Army
1998 Their System Doesn't Work for You
1996 Die for the Government
A New Kind of Army tabs
01Tearing Everyone Down tabbass tab
02Captain Anarchy tabbass tab
03A New Kind of Army tabbass tab
04That's Youth tabbass tab
05No Apology tabbass tab
06Got the Numbers tabbass tab
07No Difference tabbass tab
08I Don't Believe tabbass tab
09Right On tabbass tab
10What You Don't Know tabbass tab
11Free Nation? tabbass tab
12Outbreak tabbass tab
13Police Story tabbass tab
14The Consumer's Song tabbass tab
15This Is Not a Crass Song tabbass tab

 

1