Search tabs:
Browse artists: 0-9 | A | B | C | D | E | F | G | H | I | J | K | L | M | N | O | P | Q | R | S | T | U | V | W | X | Y | Z
/ / / guitar tab

AudioSlave-Gasoline
Tuning-D,G,C,F,A,D i did this tab in. It came out fine.
Tabber-Danny-Ibanezjd2287@aol
This song kix @ss i don't know if im 100% sure about this but it sounds good.

Main Riff
------------------------------------
------------------------------------
------------------------------------
-55-66-88--5555-444--33--2----------
-55-66-88--5555-444--33--2----------
-55-66-88--5555-444--33--2----------
-3 times-              -Ring-
---------1st time-------------------

Verse-Do this with a Echo sound, or a Tremolo effect.
D-------------------------
A-------------------------
F----------666-555--------
C-------------------------
G--66666------------------
D-------------------------

Main riff
------------------------------------
------------------------------------
------------------------------------
-55-66-88--5555-444--33--2----------
-55-66-88--5555-444--33--2----------
-55-66-88--5555-444--33--2----------
-5 times-              -Ring-


(2:44)This is before the solo comes.
D----------------777--------
A--------666-777------------
F---------------------------
C---------------------------
G---------------------------
D---------------------------

(3:02)I don't know the solo if you know then just tab it.

(4:09)This is like the Main Riff but a little different. This goes until the end.
------------------------------------
------------------------------------
------------------------------------
-55-66-88--5555-444--333--2----------
-55-66-88--5555-444--333--2----------
-55-66-88--5555-444--333--2----------
                        -Ring-


albums
tabs

 

1