Search tabs:
Browse artists: 0-9 | A | B | C | D | E | F | G | H | I | J | K | L | M | N | O | P | Q | R | S | T | U | V | W | X | Y | Z
/ Ben Kweller / On My Way (2004) / Believer guitar tab

Artist: Ben Kweller
Album: On My Way
Song Title: Believer

Chords: E       022100
	 E*      x79997
	 A       002220
	 A*     577655	
	 B       x24442
C#m  x46654
	

Intro:
e--------------------------------------------------------------
B-4h5-4------------------------------------4h5-4---------------
G----------4-----4h6-4------------------------------4-----4h6--
D-------------------------4-5/6-5/6------------------6---------
A--------------------------------------------------------------
E--------------------------------------------------------------
play 2 times

Riff 1:
e-------------------
B-------------------
G-------------------
D-------------------
A----------2--------
E-0---2h4-----0-----

Verse:
C#m  A*  E*
C#m  A*
play 2 times

Chorus:
E B A E riff 1
Play 4 times

Post-Chorus:
B a whole bunch of times  A E riff 1

Order:
Intro
Verse
Chorus
Verse
Chorus
Post-Chorus
Verse
Chorus
Post-Chorus
Chorus


Ben Kweller albums
2004 On My Way
2002 Sha Sha
On My Way tabs
01I Need You Back tabbass tab
03My Apartment tabbass tab
04On My Way tabbass tab
05The Rules tabbass tab
08Ann Disaster tabbass tab
09Believer tabbass tab
10Hear Me Out tabbass tab

 

1