Search tabs:
Browse artists: 0-9 | A | B | C | D | E | F | G | H | I | J | K | L | M | N | O | P | Q | R | S | T | U | V | W | X | Y | Z
/ Ben Kweller / On My Way (2004) / Hear Me Out guitar tab

Ben Kweller - Hear Me Out

couldn't find this tab anywhere so i said "screw it, ill do it myself"

Intro/Verses:

E-2-2-2-2-0---
B-3---------3-
G-------------
D-------------
A-------------
E-------------

Main chords:
D A Bm G

power chords
  D  A B   G
E------------
B------------
G-7-----4----
D-7--7--4--5-
A-5--7--2--5-
E----5-----3-


Chorus Riff:

 "YOu Don't Know I'm   Hear  Me    OuT"
E-----------------------2-----3-----5-
B--3---2-----------2------------------
G-------------4-----------------------
D-------------------------------------
A-------------------------------------
E-------------------------------------

 "YOu Don't Know I'm   Heeearrrr"
E---------------------------
B--3---2-----------2----3---
G-------------4-------------
D---------------------------
A---------------------------
E---------------------------

Any Corrections or suggestions...punk_rox13@hotmail.com
This is off Ben's 2nd album "On My Way" AWSOME cd...get one
 in you hands and in the music in your head... really awsome stuff


Ben Kweller albums
2004 On My Way
2002 Sha Sha
On My Way tabs
01I Need You Back tabbass tab
03My Apartment tabbass tab
04On My Way tabbass tab
05The Rules tabbass tab
08Ann Disaster tabbass tab
09Believer tabbass tab
10Hear Me Out tabbass tab

 

1