Search tabs:
Browse artists: 0-9 | A | B | C | D | E | F | G | H | I | J | K | L | M | N | O | P | Q | R | S | T | U | V | W | X | Y | Z
/ Ben Kweller / On My Way (2004) / The Rules guitar tab

Ben Kweller - The Rules


Intro
|------------------------------|
|------------------------------|
|-2-2-2-2--2-2-2-2--2-2-2-2--2-|
|-2-2-2-2--2-2-2-2--2-2-2-2--2-|
|-0-x-0-x--0-x-0-x--0-x-0-x--0-|
|---3---3----3---3----3---3----|



Verse
|------------------------------------------------------------------------|
|-------------------------------------3-3-3-3--3-3-3-3--3-3-3-3--3-3-3-3-|
|-2-2-2-2--2-2-2-2--2-2-2-2--2-2-2-2--2-2-2-2--2-2-2-2--2-2-2-2--2-2-2-2-| x2
|-2-2-2-2--2-2-2-2--2-2-2-2--2-2-2-2--0-x-0-x--0-x-0-x--0-x-0-x--0-x-0-x-|
|-0-x-0-x--0-x-0-x--0-x-0-x--0-x-0-x----3---3----3---3----3---3----3---3-|
|---3---3----3---3----3---3----3---3-------------------------------------|



Chorus
|-----0---2--------------------|
|-2---0---1--------------------|
|-2---1---2---2-2-2-2--2-2-2-2-| x2
|-2---2-------2-2-2-2--2-2-2-2-|
|-0---2-------0-x-0-x--0-x-0-x-|
|-----0---------3---3----3---3-|



Verse
Guitar 1         x3
|------------------|------------------------------------|
|------------------|-3-3-3-3--3-3-3-3--3-3-3-3--3-3-3-3-|
|-2-2-2-2--2-2-2-2-|-2-2-2-2--2-2-2-2--2-2-2-2--2-2-2-2-|
|-2-2-2-2--2-2-2-2-|-0-x-0-x--0-x-0-x--0-x-0-x--0-x-0-x-|
|-0-x-0-x--0-x-0-x-|---3---3----3---3----3---3----3---3-|
|---3---3----3---3-|------------------------------------|

|------------------------------------------------------------------------|
|-------------------------------------3-3-3-3--3-3-3-3--3-3-3-3--3-3-3-3-|
|-2-2-2-2--2-2-2-2--2-2-2-2--2-2-2-2--2-2-2-2--2-2-2-2--2-2-2-2--2-2-2-2-|
|-2-2-2-2--2-2-2-2--2-2-2-2--2-2-2-2--0-x-0-x--0-x-0-x--0-x-0-x--0-x-0-x-|
|-0-x-0-x--0-x-0-x--0-x-0-x--0-x-0-x----3---3----3---3----3---3----3---3-|
|---3---3----3---3----3---3----3---3-------------------------------------|

Guitar 2
|------------------------------------------------------------------------|
|-------------------------------------3-1-3-1--3-1-3-1--3-1-3-1--3-1-3-1-|
|-2-0-2-0--2-0-2-0--2-0-2-0--2-0-2-0-------------------------------------|
|------------------------------------------------------------------------|
|------------------------------------------------------------------------|
|------------------------------------------------------------------------|



Chorus
Guitar 1
|-----0---2--------------------|      |------------------|
|-2---0---1--------------------|      |------------------|
|-2---1---2---2-2-2-2--2-2-2-2-| x2   |-2-2-2-2--2-2-2-2-|
|-2---2-------2-2-2-2--2-2-2-2-|      |-2-2-2-2--2-2-2-2-|
|-0---2-------0-x-0-x--0-x-0-x-|      |-0-x-0-x--0-x-0-x-|
|-----0---------3---3----3---3-|      |---3---3----3---3-|

Guitar 2
|---------5--------------------|
|-14--12--7--------------------|
|-14--13--5---2-2-2-2--2-2-2-2-| x2
|-14--14--7---2-2-2-2--2-2-2-2-|
|-12--14--5---0-x-0-x--0-x-0-x-|
|---------------3---3----3---3-|



Solo
Guitar 1
|------------------------------------------------------------------------|
|-------------------------------------3-3-3-3--3-3-3-3--3-3-3-3--3-3-3-3-|
|-2-2-2-2--2-2-2-2--2-2-2-2--2-2-2-2--2-2-2-2--2-2-2-2--2-2-2-2--2-2-2-2-| x2
|-2-2-2-2--2-2-2-2--2-2-2-2--2-2-2-2--0-x-0-x--0-x-0-x--0-x-0-x--0-x-0-x-|
|-0-x-0-x--0-x-0-x--0-x-0-x--0-x-0-x----3---3----3---3----3---3----3---3-|
|---3---3----3---3----3---3----3---3-------------------------------------|

Guitar 2
|-------0-------0-------0-------------------------------------------8----|
|-----5-------5-------5----------------------------------------8b10---10-|
|-7b9-----7b9-----7b9------7-7b9r7p5-----5-7-5---5-7-5vvv--5-5-----------|
|------------------------------------7-7-------7---------------hold-bend-|
|--------------------------------------------------------------till-*----|
|------------------------------------------------------------------------|

|-8-8-8-8----8-8-------------------------------------12-12---------------|
|---------10-----10-10-10---12b14r12-10--------12b14-------r12-10--------|
|---------------------------------------11-9-9---------------------------|
|-----------------------*------------------------------------------------|
|------------------------------------------------------------------------|
|------------------------------------------------------------------------|

|------------------------------------------------------------------------|
|-10b12r10--------------10-10------10------5-9-5-------------------------|
|----------11--11--9b11-------9b11-----7b9-------7p5-7p5-7b9r7p5---------|
|------------------------------------------------------------------------|
|------------------------------------------------------------------------|
|------------------------------------------------------------------------|

|------------------------------------------------------------------------|
|------------------------------------------------------------------------|
|-7b9r7p5---5-7-5-7b9----------------------------------------------------|
|---------7--------------------------------------------------------------|
|------------------------------------------------------------------------|
|------------------------------------------------------------------------|



Outro
|----2-----------------------5--4--2-----------------------9---7--5------|
|----1-----------------------5--5--1-----------------------10--9--7------|
|-1--2--2-2-2-2--2-2-2-2--------4--2--2-2-2-2--2-2-2-2-----9------5------|
|-2-----2-2-2-2--2-2-2-2--------------2-2-2-2--2-2-2-2-------------------|
|-2-----0-x-0-x--0-x-0-x--------------0-x-0-x--0-x-0-x-------------------|
|-0-------3---3----3---3----------------3---3----3---3-------------------|

|----------------------5--4--2-------------------------------------------|
|----------------------5--5--1-------------------------------------------|
|-2-2-2-2--2-2-2-2-----6--4--2--2-2-2-2--2-2-2-2-------------------------|
|-2-2-2-2--2-2-2-2--------------2-2-2-2--2-2-2-2-------------------------|
|-0-x-0-x--0-x-0-x--------------0-x-0-x--0-x-0-x-------------------------|
|---3---3----3---3----------------3---3----3---3-------------------------|

Guitar 1 and 2 play the chorus twice with
the two different chord shapes as above, then:

Guitar 1
|-----0--2-2-2-2-2--------------------------0-0-0-0-0-0-0----------------|
|-2---0--1-1-1-1-1----------------------2---0-0-0-0-0-0-0--------------2-|
|-2---1--2-2-2-2-2--2-2-2-2--2-2-2-2----2---1-1-1-1-1-1-1-----2-2-2-2--2-|
|-2---2-------------2-2-2-2--2-2-2-2----2---2-2-2-2-2-2-2-----2-2-2-2--2-|
|-0---2-------------0-x-0-x--0-x-0-x----0---2-2-2-2-2-2-2-----0-x-0-x--0-|
|-----0---------------3---3----3---3--------0-0-0-0-0-0-0-------3---3----|

Guitar 2
|--------5-5-5-5-5--------------------------0-0-0-0-0-0-0----------------|
|-14--12-7-7-7-7-7----------------------14--0-0-0-0-0-0-0----------------|
|-14--12-5-5-5-5-5--2-2-2-2--2-2-2-2----14--1-1-1-1-1-1-1-----2-2-2-2--2-|
|-14--13------------2-2-2-2--2-2-2-2----14--2-2-2-2-2-2-2-----2-2-2-2--2-|
|-12--14------------0-x-0-x--0-x-0-x----12--2-2-2-2-2-2-2-----0-x-0-x--0-|
|---------------------3---3----3---3--------0-0-0-0-0-0-0-------3---3----|


Ben Kweller albums
2004 On My Way
2002 Sha Sha
On My Way tabs
01I Need You Back tabbass tab
03My Apartment tabbass tab
04On My Way tabbass tab
05The Rules tabbass tab
08Ann Disaster tabbass tab
09Believer tabbass tab
10Hear Me Out tabbass tab

 

1