Search tabs:
Browse artists: 0-9 | A | B | C | D | E | F | G | H | I | J | K | L | M | N | O | P | Q | R | S | T | U | V | W | X | Y | Z
/ Ben Kweller / Sha Sha (2002) / Lizzy guitar tab

Artist: Ben Kweller
Album: Sha Sha / Freak Out! Its Ben Kweller
Tabbed By: HyperPiper
	   Jason@piperhyper.co.uk

This Song Is Played Finger Style

Chords:  Em 022000
         C  032010 (Sometimes there is a hammer w/ middle finger)
         D  XX0232
         Am 002210
         G  320001
         B7 X21202
h = Hammer On
p= Pull-off
/ = Slide

Intro:                                           C
e:------------------------------------------------------------------------------
B:------------------3-----0-----3-----0-------------------------0---------------
G:--4p2--0----------4-----0-----4-----0-------------0-----2---------2---0--2----
D:----------0-2-----------------------------------------------------------------
A:----------------------------------------------3---3---3---3---3---3---3---3---
E:--------------0---0---0---0---0---0---0---0-----------------------------------

e:------5-/-/-0-----------------------------------------------------------------
B:------5-/-/-0-----5-/-/-1-----------------------------------------------------
G:------------------5-/-/-2-------------0-----2---------------4p2--0------------
D:-------------------------------------------------0h1----------------0-2-------
A:--0---0---0---0---0---0---0---0---2---2---2---2---------2---------------------
E:-------------------------------------------------------------------------0----


Em                C
sign me up i volunteer
D                                 C
votes are in for life guard of the year

e:-----------------
B:-----------------
G:--4p2--0---------
D:----------0-2----
A:-----------------
E:--------------0--


Em                       C
her feline past lives are plain
D                           B7
they're singular, it is our, shown in this life again
     C     G            D                 Am           C                 G
like mamma said dontcha let it go to your head when ya know you're being fed
       D
i'm so proud to know you
           C           G       D         Am       C            G
lizzy i'll write i'll sing telegraph telegram telephone tellin you i'll be
D    G    D C Em
home soon dienu




e:-----------------
B:-----------------
G:--4p2--0---------
D:----------0-2----
A:-----------------
E:--------------0--

Em			 C
we will wake when kitty licks
D			         C
and in the morn work takes her to maine

e:-----------------
B:-----------------
G:--4p2--0---------
D:----------0-2----
A:-----------------
E:--------------0--

Em		            C
dressed and out the door by six
D			            B7
tomorrow is the first time she can't board my plain

C           G            D                Am           C                   G
like mamma said dontcha let it go to your head when ya know you're book is read
       D
i'm so proud to know you
          C              G                  D    Am           C
anna will take me to the port as liz drives up I-95 me and my darlin keep
      G          D
love alive even on
      B7
texas time

     C	       G	     D		      Am	      C		     G
and like mamma said dontcha let it go to your head when your town is painted red
      D
im so proud to know you
	   C	      G           D 	  Am	     C		 G	    D
lizzy i'll write i'll sing telegraph telegram telephone tellin' you i'll be home
G    D C Em
soon dienu

*The Next Bit i'm not so sure about, but it sound likes its Em and C and finishes
on Em*

Dienu
I Love You

Outro:                                          C
e:---------------------------------------------------------------------
B:---------3-----0-----3-----0-------------------------0---------------
G:---------4-----0-----4-----0-------------0-----2---------2---0--2----
D:---------------------------------------------------------------------
A:-------------------------------------3---3---3---3---3---3---3---3---
E:-----0---0---0---0---0---0---0---0-----------------------------------

e:------5-/-/-0-------------------------------------------------------------0---
B:------5-/-/-0-----5-/-/-1-------------------------------------------------0---
G:------------------5-/-/-2-------------0-----2---------------4p2--0--------0---
D:-------------------------------------------------0h1----------------0-2---2---
A:--0---0---0---0---0---0---0---0---2---2---2---2---------2-----------------2---
E:--------------------------------------------------------------------------0---


Ben Kweller albums
2004 On My Way
2002 Sha Sha
Sha Sha tabs
02Wasted and Ready tabbass tab
03Family Tree tabbass tab
04Commerce, TX tabbass tab
05In Other Words tabbass tab
06Walk on Me tabbass tab
07Make It Up tabbass tab
08No Reason tabbass tab
09Lizzy tabbass tab
10Harriet's Got a Song tabbass tab
11Falling tabbass tab

 

1