Search tabs:
Browse artists: 0-9 | A | B | C | D | E | F | G | H | I | J | K | L | M | N | O | P | Q | R | S | T | U | V | W | X | Y | Z
/ / / guitar tab

Author/Artist: Black Label Society
Title: Mother Mary
Album: Sonic Brew
Transcribed by: Bill Addis
Email: billaddis@hotmail.com
From: www.blacklabelsociety.net

Standard tuning

---------------------------------|-------------------------------------------
---------------------------------|-------------------------------------------
---------------------------------|-------------------------------------------
---------------------------------|-------------------------------------------
-------ah----ah---------2-2-2-2--|--------ah----ah---------2-2---------------
-5p3-0-3~--0-3~--0--5h7-0-0-0-0--|--5p3-0-3~--0-3~--0--5h7-0-0---------------
 main riff

-0---------------------------------------------------------------------------
-0---------------------------------------------------------------------------
-1-------------7fb-(slowly-bend-and release-a-few-times)---------------------
-2-let-ring------------------------------------------------------------------
-2---------------------------------------------------------------------------
-0---------------------------------------------------------------------------
 pre-verse riff

---------------------------------|-------------------------------------------
---------------------------------|-------------------------------------------
---------------------------------|-------------------------------------------
---------------------------------|-------------------------------------------
-------5-----5----------2-2-2-2--|-------5-----5----------2-2----------------
-5p3-0-3---0-3---0--5h7-0-0-0-0--|-5p3-0-3---0-3---0--5h7-0-0----------------
 chorus (starts with main riff, then changes to this at "take me in from the storm.."

-----------------------------------------------------------------------------
-----------------------------------------------------------------------------
-----------------------------------------------------------------------------
-----------------------------------------------------------------------------
-------5-----5----------2-2-2-2--5----6----7---/------\----------------------
-5p3-0-3---0-3---0--5h7-0-0-0-0--3----4----5---------------------------------
                        "mother  mary....."


albums
tabs

 

1