Search tabs:
Browse artists: 0-9 | A | B | C | D | E | F | G | H | I | J | K | L | M | N | O | P | Q | R | S | T | U | V | W | X | Y | Z
/ / / guitar tab

bryan adams - cuts like a knife
submitted by ryan fogg

Intro: D | G C9 | D | G C9 | x2

Riff:
E------------------------------------------------
B------------------------------------------------
G--9--11--9h11---9--7--7/9---4--7---2h4--2-------
D--0--0---0-------0--0--0-----0--0---0-----0-----
A------------------------------------------------
E------------------------------------------------

Verse 1:
D
Drivin' home this evenin'
G                       C9          D    G   C9
Coulda sworn we had it all worked out
D	                G           C9          D        G      C9
You had this boy believin' way beyond a shadow of a doubt
D
Then I heard it on the street
G                   C9              D     G   C9
I heard ya might of found somebody new
D                      G            C9                       D
Well who is he baby - who is he and tell me what he means to you

Bridge 1:
A                               Bm
I took it all for granted - but how was I to know
C9                    G
That you'd be lettin' go

Chorus:
                    D    G C9                D       G  C9
Now it cuts like a knife - but it feels so right
                  D   G C9                 D        G C9
It cuts like a knife - but it feels so right

Verse 2: same as verse 1

Bridge 2: same as bridge 1

(Chorus)
D                 G    C9      D   G (Fill) C9
Na na naaa na na na na na na na
D                 G    C9      D   G C9
Na na naaa na na na na na na na

Fill:
E-------------------------------------------------
B--13-10----10------------------------------------
G---------12-----10b1/2---------------------------
D--------------------------12-10------------------
A----------------------------------12---(12)\-----
E-------------------------------------------------

Solo:
use tremelo to bend down one tone then back up......
E--------------------------------------------------
B-7/10h13-10h13-10h13-10h13-10h13-10h13-10h13-10h13
G--------------------------------------------------
D--------------------------------------------------
A--------------------------------------------------
E--------------------------------------------------

E-----------------------------10--------10--------
B-10h13-10h13-10h13-10h13-13b-----10-13b---10-13b-
G-------------------------------------------------
D-------------------------------------------------
A-------------------------------------------------
E-------------------------------------------------

grad. release
E--10--------------------------------------14--14--
B----13-10-13-12-10-12-10-12br----(12)p10----15----
G----------------------------------------12--------
D--------------------------------------------------
A--------------------------------------------------
E--------------------------------------------------

E----------------------14b1/2--14b1/2-
B-17b-17b--17br(17)p15----------------
G---------------------16--------------
D-------------------------------------
A-------------------------------------
E-------------------------------------

E--13----17-17----19----17----19----17--20--20b--20b----20b\----
B-----15--------15----15----15----15----------------------------
G---------------------------------------------------------------
D---------------------------------------------------------------
A---------------------------------------------------------------
E---------------------------------------------------------------

(Bridge 1)

(Chorus) play quietly same as above chorus


albums
tabs

 

1