Search tabs:
Browse artists: 0-9 | A | B | C | D | E | F | G | H | I | J | K | L | M | N | O | P | Q | R | S | T | U | V | W | X | Y | Z
/ / / guitar tab

Bryan Adams
Straight from the heart
submitted by ryan fogg

you can play C(X35553)or C(032010) but C/E sounds great
C/E(032013)
I could stop dreaming but it never ends

C/E
As long  as you're gone wemay as well pretend

              Bb	F    Bb C
I've been dreaming

G			C
Straight from the heart

     C
e----------0--------
B------1-----1------
G--------------0----
D----2---2-------2--
A--3----------------
E-------------------  X 4
  You say its easy but who's to say that we'd be able to keep it this way


      Bb	F        Bb         G	        C
e------1--|---------|------1--|------3--|----------0--------------------0-------
B----3----|------1--|----3----|----0----|------1-----1--------------1-----1-----
G---------|----2----|---------|--0------|---------------0-------------------0---
D--3------|--3------|--3------|---------|----2---2--------2-------2---2-------2-
A---------|---------|---------|---------|--3--------------------3---------------
E---------|---------|---------|---------|---------------------------------------
   But     its      easier 		   coming    straight   from   the  heart   	


     Bb	    	G	  C
e------1--|------3--|----------0-------
B----2----|----0----|------1-----1-----
G---------|--0------|--------------0---
D--3------|---------|----2---2-------2-
A---------|---------|--3---------------
E---------|---------|------------------
    Give it to me straight from the heart

     Bb         G         C
e------1--|------3--|----------0-------
B----2----|----0----|------1-----1-----
G---------|--0------|--------------0---
D--3------|---------|----2---2-------2-
A---------|---------|--3---------------
E---------|---------|------------------
    tell me we can make one more start

	  Dm	   Am	      F		G	   C/E
      e--1-------|--0--------|----------|--3--------|---3--3--3----
      B----3-----|----1------|--1-------|----3------|---1--1--1----
      G------2---|------2----|----1-----|------0----|---0--0--0----
      D--------0-|--------2--|------2---|--------0--|---2--2--2----
      A----------|-----------|--------3-|-----------|---3--3--3----
      E----------|-----------|----------|-----------|---0--0--0----
You know I'll never go as long as I know it's comin sraight from the heart.


repeat

I see you on the street some other time,
When all the words will just fall out of line
While we're dreamin' straight from the heart.

Oh give it to me straight from the heart
Tell me we could make another start
You know I'll never go as long as I know it's comin
straight from the heart.

Instrumental break

Straight from the heart
Tell me we could make one more start
You know I'll never go as long as I know, give it to me now
straight from the heart.


        C
|----------0----------|
|------1-----1--------|
|---------------0-----|
|----2---2--------2---|
|--3----------------3-|
|---------------------|
coming    straight   from   the  heart


albums
tabs

 

1