Search tabs:
Browse artists: 0-9 | A | B | C | D | E | F | G | H | I | J | K | L | M | N | O | P | Q | R | S | T | U | V | W | X | Y | Z
/ / / guitar tab

Bryan Adams
Its Only Love


C  - x32013
Dm - xx0231
Bb - x13331

Intro (x2)

E|--1----3--------0----1--------------------1----1--x--1--1--
B|--3----1--------1----3--------------------1----1--x--1--1--
G|--2----0--------2----3--------------------2----2--x--2--2--
D|--0----2--------2----3---------3--0--x----3----3--x--3--3--
A|-------3--------0----1----3h5--------x----3----3--x--3--3--
E|------------------------------------------1----1--x--1--1--

E|--1----1--x--1--1--
B|--1----1--x--1--1--
G|--2----2--x--2--2--
D|--3----3--x--3--3--
A|--3----3--x--3--3--
E|--1----1--x--1--1--

This serves as the main figure throughout most of the song, except where
noted.

(B.A.)
When the feeling has ended
There ain't no use pretending, don't you worry
It's only love
When your world has been shattered
Ain't nothing else matters, it ain't over
It's only love, and that's all yeah

(T.T.)
When your heart has been broken
Harsh words have been spoken, it ain't easy
But it's only love
And if your life ain't worth living
And you're ready to give in
It's only love

(B.A. & T.T.)
C                        Dm
You can live without the aggravation
Bb
You got to run with it, you got to run with it
C                        Dm
You keep looking back in desperation
Bb
Over and over and over again

(Play main riff again, along with some random lyrics from B.A.)

(B.A. & T.T.)
When your world is shattered
And nothing else matters, it ain't over
It's only love
If your life ain't worth living
And you're ready to give in, just remember
It's only love, yeah that's all

Outro (B.A.):
Yeah it ain't easy baby
It's only love and that's all

Instead of the normal F chord during the Outro, you play this:
E|----------------------------------------------------
B|--10----10--x--10--10/--------10----10--x--10--10/--
G|--10----10--x--10--10/--------10----10--x--10--10/--
D|--10----10--x--10--10/--------10----10--x--10--10/--
A|--8-----8---x--8---8-/--------8-----8---x--8---8-/--
E|----------------------------------------------------


Rob.k
-Dressed2kill


albums
tabs

 

1