Search tabs:
Browse artists: 0-9 | A | B | C | D | E | F | G | H | I | J | K | L | M | N | O | P | Q | R | S | T | U | V | W | X | Y | Z
/ / / guitar tab

Author/Artist: Bryan Adams
Title: Summer of '69
Album: Reckless
Transcribed by: Craig Syme

* - pm
x - dead note


   D
-|-------------------|-----------------|-------------------|----------------|-
-|-3------3----------|-------------3---|-3------3----------|-------------3--|-
-|-2---2--2----2-2-2-|-2-2-2-2-2-2-2---|-2---2--2----2-2-2-|-2-2-2-2-2-2-2--|-
-|-0---0--0----0-0-0-|-0-0-0-0-0-0-0---|-0---0--0----0-0-0-|-0-0-0-0-0-0-0--|-
-|-------------------|-----------------|-------------------|----------------|-
-|-------------------|-----------------|-------------------|----------------|-
       *       * * *   * * * * * *           *       * * *   * * * * * *
 Intro.     Play once.                  Verse.   Play for all the verses.

   A
-|-------------------|-----------------|-|------------------------------------
-|-------------------|-----------------|-|------------------------------------
-|-2------2----------|-------------2---|-|------------------------------------
-|-2---2--2----2-2-2-|-2-2-2-2-2-2-2-x2|-|------------------------------------
-|-0---0--0----0-0-0-|-0-0-0-0-0-0-0---|-|------------------------------------
-|-------------------|-----------------|-|------------------------------------
       *       * * *   * * * * * *
   Make the palm muting really chunky

   Bm    A	 D     G         Bm	    A
-|-------0-----|-2-----3-------|------------0--------------------|------------
-|-3-----2-----|-3-----0-------|-3----------2--------------------|------------
-|-4-----2-----|-2-----0----x2-|-4----------2--------------------|------------
-|-4-----2-----|-0-----0-------|-4----------2--------------------|------------
-|-2-----0-----|-------2-------|-2----------0--------------------|------------
-|-------------|-------3-------|---------------------------------|------------
 Chorus.                         those...   best days of my life.

   D				       A
-|-0-----2-----3---|---2-----0---2---|-----------------|-----------------|----
-|---3-----3-----3-|-----3-----------|-0-----2-----3---|---2-----0---2---|----
-|-----2-----2-----|-2-----2---2---2-|---2-----2-----3-|-----2-----------|----
-|-----------------|-----------------|-----------2-----|-2-----2---2---2-|----
-|-----------------|-----------------|-----2-----------|-----------------|----
-|-----------------|-----------------|-----------------|-----------------|----
 Cool synth riff.  D and A are the chords.

   F   Bb  C   Bb  C   C
-|-1---x---x---x---x---x--------------------------------------------------|
-|-3---1---3---1---3---3--------------------------------------------------|
-|-3---3---2---3---2---2--------------------------------------------------|
-|-2---3---0---3---0---0--------------------------------------------------|
-|-1---3---1---3---1---1--------------------------------------------------|
-|-1---1---0---1---0---0--------------------------------------------------|


If anyone knows the solo then email it to me at messed_up_metalhead@hotmail.com

Order:

Intro
Verse (x2)
Chorus
Verse
Chorus
Synth Riff
Key Change
Synth
Verse (w/synth)
Chorus
Synth
Solo


albums
tabs

 

1