Search tabs:
Browse artists: 0-9 | A | B | C | D | E | F | G | H | I | J | K | L | M | N | O | P | Q | R | S | T | U | V | W | X | Y | Z
/ / / guitar tab

New Found Glory
Everything I Do, I Do It For You

Intro
e|---1---1---1----2--4--2--1-----------------4--------|
B|-----2---2---2--------------4---4---4----4---4--1---|
G|------------------------------5---5---5-------------|
D|----------------------------------------------------|
A|----------------------------------------------------|
E|----------------------------------------------------|

Continued...
e|------------------2---1-----------|
B|---2---2---2----2---2----4----4---|
G|-----3---3---3----------------5---|
D|----------------------------------|
A|----------------------------------|
E|----------------------------------|


Verse.1
e|------------------------|
B|------------------------|
G|---6------6-------------|
D|---6------6--8------6---|
A|---4------3--8------6---|
E|-------------6------4---|

Verse.2
e|------------------------|
B|------------------------|
G|-----------6------------|
D|----8------6------6-6---|
A|----8------4------6-6---|
E|------------------4-4---|

Chorus
e|------------------------------|
B|------------------------------|
G|---6------6------6------6-6---|
D|---6------6------6------6-6---|
A|---4------3------4------4-4---|
E|------------------------------|


albums
tabs

 

1