Search tabs:
Browse artists: 0-9 | A | B | C | D | E | F | G | H | I | J | K | L | M | N | O | P | Q | R | S | T | U | V | W | X | Y | Z
/ Cannibal Corpse / Wretched Spawn (2004) / Blunt Force Castration guitar tab

Band:  Cannibal Corpse
Album: The Wretched Spawn
Song:  Blunt Force Castration

Copyright (c)  Metal Blade (2004)
Version 1.0 - 15/12/2004

Transcribed By: Marino Manarin
Email:          mmmfbrutal@uol.com.br


.  - palm mute           /  - slide up to
\  - slide down to       ~  - vibrato
h  - hammer on           b  - Bend
p  - pull off            Suffixes for bend
t  - tap                 f  - full bend    h - half bend
ph - pinched harmonic    q  - quarter bend t - tap bend
*  - see comment         ^  - Hold bend    r release bend
x  - Stuccatto           ~  - vibrato bend
,  - slight palm mute    () - ghost note, sustained note
"  - tremolo note        <> - Trill

Tunning Bb.

Riff1                       __________note*__________
|----------------------------------------------------|
|----------------------------------------------------|
|----------------------------------------------------|
|----------976----------976----6-----7----4----3-----|
|-5"...-568----5"...-568---------4-5--------------4--|
|---------------------------5"---------2"----2-------|
                            .    . .   .     .    .

|---------------------------------------------------------|
|---------------------------------------------------------|
|---------------------------8911--------------------------|
|----------976----------8911--------6-----7----4----3-----|
|-5"...-568----5"...-568--------------4-5--------------4--|
|--------------------------------5"---------2"----2-------|
                                 .    . .   .     .    .

Riff2
|-------------------------2x------------------------------|
|---------------------------------------------------------|
|-------------88-----------------------------88-----------|
|-88----77-------66-77----88----77----66--------66-77-----|
|----66----55----------66----66----55----44-----------66--|
|---------------------------------------------------------|
     ..    ..          ..    ..    ..    ..           ..

Riff3
|--------------|-----------------------------4x------------------------------|
|--------------|-------------------------------------------------------------|
|--------------|-------------------------------------------------------------|
|-7/6-10/9-7/6-|--------87-1110------98-10/9-7/6-----------------98-10/9-7/6-|
|-5/4-8-/7-5/4-|-----98-65-9-8--1110-76-8-/7-5/4-----98-78-76-98-76-8-/7-5/4-|
|--------------|-0-0-76---------9-8--------------0-0-76-56-54-76-------------|
                 . . .. .. . .  . .  ..          . . .. .. .. .. ..


|-------------------------------------------------|
|-------------------------------------------------|
|-------------------------------------------------|
|--------87-1110------98-10/9-7/6-----------------|
|-----98-65-9-8--1110-76-8-/7-5/4-----98-78-76-98-|
|-0-0-76---------9-8--------------0-0-76-56-54-76-|
  . . .. .. . .  . .  ..          . . .. .. .. ..


Riff4
|------------------------------------4x---------------------------------------|
|-----------------------------------------------------------------------------|
|-----------------------------------------------------------------------------|
|------------1"-------1"-------3"-------------------1"-------1"-------3"------|
|---5"-2"-3"-------------4"-5"-------------5"-2"-3"-------------4"-5"---------|
|-0-------------2"-3"-------------7"6"5"4"-------------2"-3"-------------7"6"-|
  .

Repeat note*
Repeat Riff1
Repeat Riff2
Repeat Riff3
Repeat Riff4
Repeat note*

Riff5 (O'Brien solo)
                       Riff6
|---------4x----------|----------------------------------------------|
|---------------------|----------------------------------------------|
|---------------------|----6-----------------------------------------|
|--------2h3----------|------5-----5h6p5h6p5h6p5---------------------|
|-2"-5h4--------------|-6-------------------------2=================-|
|------------4"-2"-1"-|-4------000----------------0=================-|
                        .      ...
|----------------------------------------------------------------|
|----------------------------------------------------------------|
|---6-------------------------9h10p9h10p9h10p9-------------------|
|-----5-----5h6p5h6p5h6p5--------------------------8h9p8h9p8h9p8-|
|-4--------------------------------------------------------------|
|-------000---------------0-0------------------0-0---------------|
  .     ...               . .                  . .
|---------------------------------------------|
|---------------------------------------------|
|---6-----------------------------------------|
|-----5-----5h6p5h6p5h6p5---------------------|
|-4------------------------2=================-|
|-------000----------------0=================-|
  .     ...
|-----------------------------------------------------------------|
|-----------------------------------------------------------------|
|-------6----------------------9h10p9h10p9h10p9-------------------|
|---------5"-5h6p5h6p5h6p5--------------------------8h9p8h9p8h9p8-|
|-----4-----------------------------------------------------------|
|-7/-----------------------0-0------------------0-0---------------|
      .                    . .                  . .

                           _______________variation_________________
|-------------------------------------------------------------------|
|-------------------------------------------------------------------|
|---6-----------------------------------------6---------------------|
|-----5-----5h6p5h6p5h6p5-----------------------5-----5h6p5h6p5h6p5-|
|-4------------------------2-2-2-2-2-2-2-2--4-----774---------------|
|-------000----------------0-0-0-0-0-0-0-0--------------------------|
  .     ...                  . . . . . . .
|-----------------------------------------------------------------|
|-----------------------------------------------------------------|
|-----9h10p9h10p9h10p9----------------------6---------------------|
|--------------------------8h9p8h9p8h9p8------5-----5h6p5h6p5h6p5-|
|-----------------------------------------4-----------------------|
|-0-0------------------0-0----------------------000---------------|
  . .                  . .                      ...

Repeat Variation till Riff7

Riff7 (Owen solo)
|---------------------------------------------------------|
|---------------------------------------------------------|
|-6-------5-------------------6-------5-------------------|
|---5-------4-----4"-3"---------5-------4-----3"-2"-------|
|---------------------------------------------------------|
|-----3-2-----2-1-------3"-2"-----3-2-----2-1-------2"-1"-|
      . .     . .                 . .     . .

Repeat Riff4
Repeat note*
Repeat Riff1

Ending...
|---------------------------------------------------------|
|---------------------------------------------------------|
|-------------88-----------------------------88-----------|
|-88----77-------66-77----88----77----66--------66-77-----|
|----66----55----------66----66----55----44-----------66--|
|---------------------------------------------------------|
     ..    ..          ..    ..    ..    ..           ..

|-----------------------------------------------------------|
|-----------------------------------------------------------|
|-------------88-----------------------------88-------------|
|-88----77-------66-77----88----77----66--------66-77-------|
|----66----55----------66----66----55----44-----------66--2-|
|---------------------------------------------------------0-|
     ..    ..          ..    ..    ..    ..           ..  .

End.


Cannibal Corpse albums
2004 Wretched Spawn
2002 Gore Obsessed
2000 Live Cannibalism
1999 Bloodthirst
1998 Gallery of Suicide
1996 Vile
1994 The Bleeding
1992 Tomb of the Mutilated
1991 Butchered at Birth
1990 Eaten Back to Life
Wretched Spawn tabs
01Severed Head Stoning tabbass tab
02Psychotic Precision tabbass tab
03Decency Defied tabbass tab
04Frantic Disembowelment tabbass tab
05The Wretched Spawn tabbass tab
06Cyanide Assassin tabbass tab
07Festering in the Crypt tabbass tab
08Nothing Left to Mutilate tabbass tab
09Blunt Force Castration tabbass tab
10Rotted Body Landslide tabbass tab
12Bent Backwards and Broken tabbass tab
13They Deserve to Die tabbass tab

 

1