Search tabs:
Browse artists: 0-9 | A | B | C | D | E | F | G | H | I | J | K | L | M | N | O | P | Q | R | S | T | U | V | W | X | Y | Z
/ Cannibal Corpse / Wretched Spawn (2004) / Psychotic Precision guitar tab

Band:  Cannibal Corpse
Album: The Wretched Spawn
Song:  Psychotic Precision

Copyright (c) Metal Blade 2004
Version 1.0  16.10.2004

Transcribed By: Hot Spicy
Email:          www.unchallengedhate.de / www.japanische-kampfhoerspiele.de

.  - palm mute           /  - slide up to
\  - slide down to       ~  - vibrato
h  - hammer on           b  - Bend
p  - pull off            Suffixes for bend
t  - tap                 f  - full bend    h - half bend
ph - pinched harmonic    q  - quarter bend t - tap bend
*  - see comment         ^  - Hold bend    r release bend
x  - Stuccatto           ~  - vibrato bend
,  - slight palm mute    () - ghost note, sustained note
"  - tremolo note        <> - Trill

Tuning 6 half steps down: Bb-Eb-Ab-Db-F-Bb

Guitar one = left side
Guitar two = right side

    Both guitars 8 times
|--------------------------|
|--------------------------|
|---------------------ph---|
|---------------------3f---|
|--------------------------|
|-4-3-0-7-6-0-2-1-0--------|
  . . . . . . . . .
          both guitars 2 times
|------------------------fast-------------|
|-------------------------------2-3-------|
|-------------1-3-4-3-1-3-4-3-1-----4-3---|
|-----------------------------------------|
|-5---4-----------------------------------|
|-3---2---0-------------------------------|
  .   .   .
 guitar one 4 times/guitar two 2 times
|------------------------------------|
|------------------------------------|
|-11111111---------------------------|
|---------3333-----------------------|
|-------------55---------------------|
|------------------4-7-3-6-2-5-1-4---|
                   . . . . . . . .
         guitar two on 3 time
|------------------------------------|
|------------------------------------|
|-44444444---------------------------|
|---------6666-----------------------|
|-------------88---------------------|
|------------------4-7-3-6-2-5-1-4---|
                   . . . . . . . .
         guitar two on 4 time
|------------------------------------|
|------------------------------------|
|-44444444---------------------------|
|---------6666-----------------------|
|-------------88---------------------|
|------------------7-10-6-9-5-8-4-7--|
                   .  . . . . . . .
  guitar one 4 times/guitar two 2 times
|------------------------fast-------------|
|-------------------------------2-3-------|
|-------------1-3-4-3-1-3-4-3-1-----4-3---|
|-----------------------------------------|
|-5---4-----------------------------------|
|-3---2---0-------------------------------|
  .   .   .
         guitar two on 3 & 4 time
|------------------------fast-------------|
|-------------------------------5-6-------|
|-------------4-6-7-6-4-6-7-6-4-----7-6---|
|-----------------------------------------|
|-5---4-----------------------------------|
|-3---2---0-------------------------------|
  .   .   .
                guitar one 4 times/guitar two 2 times
|---------------------------------------------------------------------|
|---------------------------------------------------------------------|
|---------------------------------------------------------------------|
|-5--7--------8--7-8-7--------8--7--8--7--------8-7--555566335566--|
|-3-5-8--7--6-5--6--5-8--7--6-5-6--5--8-7--6--5----------------|
|-------6--5--------------6--5--------------6--5----------------------|
  .  .  .  .  .  .  .  .  .  .  .  .  .  .  .  .  .  .
                      guitar two on 3 & 4 time
|---------------------------------------------------------------------|
|---------------------------------------------------------------------|
|---------------------------------------------------------------------|
|-5--7--------8--7-8-7--------8--7--8--7--------8-7--888899668899--|
|-3-5-8--7--6-5--6--5-8--7--6-5-6--5--8-7--6--5----------------|
|-------6--5--------------6--5--------------6--5----------------------|
  .  .  .  .  .  .  .  .  .  .  .  .  .  .  .  .  .  .
                        both guitars 2 times
|-----------------------------------------------------------------------|
|-----------------------------------------------------------------------|
|------------0--1--0--1--0--1--0--1-------------1--0--1--0--1--0--1-0--|
|-5-\-3-/-6--0--1--0--1--0--1--0--1--5-\-3-/-6--1--0--1-0-1--0--1--0--|
|-----------------------------------------------------------------------|
|-3-\-1-/-4--------------------------3-\-1-/-4--------------------------|
             .  .  .  .  .  .  .  .             .  .  .  .  .  .  .  .
                         guitar one 1 time
 t=tab this note only with your left finger without using your right hand
|--------------------------------------------------------------------|
|--------------------------------------------------------------------|
|-------------------------------------------------------------6------|
|-6--5-----3h6------6--5--------------6--5--------3-----6--3-----6t--|
|-6--5--6-------5t--6--5--6-4h7------6--5--6--5-----5---------------|
|-------6-----------------6-------6t--------6------------------------|
  .  .  .           .  .  .           .  .  .  .     .     .
                         guitar two 1 time
|--------------------------------------------------------------------|
|--------------------------------------------------------------------|
|--------------------------------------------------------------------|
|-6--5--------------6--5--------------6--5---------------------------|
|-6--5--6--4--------6--5--6--4--------6--5--6--5---------------------|
|-------6--4--------------6--4--------------6------------------------|
  .  .  .  .        .  .  .  .        .  .  .
               guitar one 4 times/guitar two 2 times
|---------------------------------------------------------------------|
|---------------------------------------------------------------------|
|---------------------------------------------------------------------|
|-5--7--------8--7-8-7--------8--7--8--7--------8-7--555566335566--|
|-3-5-8--7--6-5--6--5-8--7--6-5-6--5--8-7--6--5----------------|
|-------6--5--------------6--5--------------6--5----------------------|
  .  .  .  .  .  .  .  .  .  .  .  .  .  .  .  .  .  .
                      guitar two on 3 & 4 time
|---------------------------------------------------------------------|
|---------------------------------------------------------------------|
|---------------------------------------------------------------------|
|-5--7--------8--7-8-7--------8--7--8--7--------8-7--888899668899--|
|-3-5-8--7--6-5--6--5-8--7--6-5-6--5--8-7--6--5----------------|
|-------6--5--------------6--5--------------6--5----------------------|
  .  .  .  .  .  .  .  .  .  .  .  .  .  .  .  .  .  .
                        both guitars 2 times
|-----------------------------------------------------------------------|
|-----------------------------------------------------------------------|
|------------0--1--0--1--0--1--0--1-------------1--0--1--0--1--0--1-0--|
|-5-\-3-/-6--0--1--0--1--0--1--0--1--5-\-3-/-6--1--0--1-0-1--0--1--0--|
|-----------------------------------------------------------------------|
|-3-\-1-/-4--------------------------3-\-1-/-4--------------------------|
             .  .  .  .  .  .  .  .             .  .  .  .  .  .  .  .
                         guitar one 1 time
 t=tab this note only with your left finger without using your right hand
|--------------------------------------------------------------------|
|--------------------------------------------------------------------|
|-------------------------------------------------------------6------|
|-6--5-----3h6------6--5--------------6--5--------3-----6--3-----6t--|
|-6--5--6-------5t--6--5--6-4h7------6--5--6--5-----5---------------|
|-------6-----------------6-------6t--------6------------------------|
  .  .  .           .  .  .           .  .  .  .     .     .
                         guitar two 1 time
|--------------------------------------------------------------------|
|--------------------------------------------------------------------|
|--------------------------------------------------------------------|
|-6--5--------------6--5--------------6--5---------------------------|
|-6--5--6--4--------6--5--6--4--------6--5--6--5---------------------|
|-------6--4--------------6--4--------------6------------------------|
  .  .  .  .        .  .  .  .        .  .  .
    Both guitars 8 times
|--------------------------|
|--------------------------|
|---------------------ph---|
|---------------------3f---|
|--------------------------|
|-4-3-0-7-6-0-2-1-0--------|
  . . . . . . . . .
  guitar one 4 times
|---------------------|
|---------------------|
|---------------------|
|---------------------|
|-1-/-8------4--7--7--|
|-3-/-10--0--6--7--7--|
          .     .  .
  guitar two 4 times
|---------------------|
|---------------------|
|---------------------|
|---------------------|
|---------------7--7--|
|---------------7--7--|
                .  .
 both guitars 8 times
|---------------------|
|---------------------|
|---------------------|
|---------------------|
|-1-/-8------4--7--7--|
|-3-/-10--0--6--7--7--|
          .     .  .
                both guitars 1 time                 only guitar one
|-------------------------------------------------|-----------------|
|-------------------------------------------------|-----------------|
|-------------------------------------------------|-----------------|
|-------------------------------------------------|2222222222222222-|
|-3-/-8------------4---5--------------5---4-------|-----------------|
|-1-/-10--0--7777--2-0-3-0--88997777--3-0-2-03300|-----------------|
                   . . . .            . . . .
  guitar one 2 times
|---------------------|
|---------------------|
|---------------------|
|---------------------|
|-1-/-8------4--7--7--|
|-3-/-10--0--6--7--7--|
          .     .  .
  guitar two 2 times
|---------------------|
|---------------------|
|---------------------|
|---------------------|
|---------------7--7--|
|---------------7--7--|
                .  .
 both guitars 8 times
|----------------------|
|----------------------|
|----------------------|
|----------------------|
|-1-/-8-------4--7--7--|
|-3-/-10--00--6--7--7--|
                 .  .
                both guitars 1 time                 only guitar one
|-------------------------------------------------|-----------------|
|-------------------------------------------------|-----------------|
|-------------------------------------------------|-----------------|
|-------------------------------------------------|2222222222222222-|
|-3-/-8------------4---5--------------5---4-------|-----------------|
|-1-/-10--0--7777--2-0-3-0--88997777--3-0-2-03300|-----------------|
                   . . . .            . . . .
 guitar two under solo 8 times
|--------------------------|
|--------------------------|
|---------------------ph---|
|---------------------3f---|
|--------------------------|
|-4-3-0-7-6-0-2-1-0--------|
  . . . . . . . . .
          both guitars 2 times
|------------------------fast-------------|
|-------------------------------2-3-------|
|-------------1-3-4-3-1-3-4-3-1-----4-3---|
|-----------------------------------------|
|-5---4-----------------------------------|
|-3---2---0-------------------------------|
  .   .   .
    guitar one under solo  4 times
|------------------------------------|
|------------------------------------|
|-11111111---------------------------|
|---------3333-----------------------|
|-------------55---------------------|
|------------------4-7-3-6-2-5-1-4---|
                   . . . . . . . .
  guitar one 4 times/guitar two 2 times
|------------------------fast-------------|
|-------------------------------2-3-------|
|-------------1-3-4-3-1-3-4-3-1-----4-3---|
|-----------------------------------------|
|-5---4-----------------------------------|
|-3---2---0-------------------------------|
  .   .   .
         guitar two on 3 & 4 time
|------------------------fast-------------|
|-------------------------------5-6-------|
|-------------4-6-7-6-4-6-7-6-4-----7-6---|
|-----------------------------------------|
|-5---4-----------------------------------|
|-3---2---0-------------------------------|
  .   .   .
               guitar one 4 times/guitar two 2 times
|---------------------------------------------------------------------|
|---------------------------------------------------------------------|
|---------------------------------------------------------------------|
|-5--7--------8--7-8-7--------8--7--8--7--------8-7--555566335566--|
|-3-5-8--7--6-5--6--5-8--7--6-5-6--5--8-7--6--5----------------|
|-------6--5--------------6--5--------------6--5----------------------|
  .  .  .  .  .  .  .  .  .  .  .  .  .  .  .  .  .  .
                      guitar two on 3 & 4 time
|---------------------------------------------------------------------|
|---------------------------------------------------------------------|
|---------------------------------------------------------------------|
|-5--7--------8--7-8-7--------8--7--8--7--------8-7--888899668899--|
|-3-5-8--7--6-5--6--5-8--7--6-5-6--5--8-7--6--5----------------|
|-------6--5--------------6--5--------------6--5----------------------|
  .  .  .  .  .  .  .  .  .  .  .  .  .  .  .  .  .  .
                        both guitars 2 times
|-----------------------------------------------------------------------|
|-----------------------------------------------------------------------|
|------------0--1--0--1--0--1--0--1-------------1--0--1--0--1--0--1-0--|
|-5-\-3-/-6--0--1--0--1--0--1--0--1--5-\-3-/-6--1--0--1-0-1--0--1--0--|
|-----------------------------------------------------------------------|
|-3-\-1-/-4--------------------------3-\-1-/-4--------------------------|
             .  .  .  .  .  .  .  .             .  .  .  .  .  .  .  .
                         guitar one 2 times
|-----------------------------------------------------------------------|
|-----------------------------------------------------------------------|
|------------0--1--0--1--0--1--0--1-------------1--0--1--0--1--0--1-0--|
|-5-\-3-/-6--0--1--0--1--0--1--0--1--5-\-3-/-6--1--0--1-0-1--0--1--0--|
|-----------------------------------------------------------------------|
|-3-\-1-/-4--------------------------3-\-1-/-4--------------------------|
             .  .  .  .  .  .  .  .             .  .  .  .  .  .  .  .
                         guitar two 2 times
|-----------------------------------------------------------------------|
|-----------------------------------------------------------------------|
|-----------------------------------------------------------------------|
|-8-\-6-/-9--8-9-8--9--8--9--8--9--8-\-6-/-9--9--8--9--8--9--8--9--8--|
|------------8--9--8--9--8--9--8--9-------------9--8--9--8--9--8--9--8--|
|-6-\-4-/-7--------------------------6-\-4-/-7--------------------------|
             .  .  .  .  .  .  .  .             .  .  .  .  .  .  .  .
 both guitars
|------------|
|------------|
|------------|
|-5-\-3-/-6--|
|------------|
|-3-\-1-/-4--|

 end...


Cannibal Corpse albums
2004 Wretched Spawn
2002 Gore Obsessed
2000 Live Cannibalism
1999 Bloodthirst
1998 Gallery of Suicide
1996 Vile
1994 The Bleeding
1992 Tomb of the Mutilated
1991 Butchered at Birth
1990 Eaten Back to Life
Wretched Spawn tabs
01Severed Head Stoning tabbass tab
02Psychotic Precision tabbass tab
03Decency Defied tabbass tab
04Frantic Disembowelment tabbass tab
05The Wretched Spawn tabbass tab
06Cyanide Assassin tabbass tab
07Festering in the Crypt tabbass tab
08Nothing Left to Mutilate tabbass tab
09Blunt Force Castration tabbass tab
10Rotted Body Landslide tabbass tab
12Bent Backwards and Broken tabbass tab
13They Deserve to Die tabbass tab

 

1