Search tabs:
Browse artists: 0-9 | A | B | C | D | E | F | G | H | I | J | K | L | M | N | O | P | Q | R | S | T | U | V | W | X | Y | Z
/ Cannibal Corpse / Wretched Spawn (2004) / Severed Head Stoning guitar tab

Tuning is from lowest to highest:

Bb, Eb, Ab, Db, Gb, Bb, Eb  a.k.a.  A#, D#, G#, C#, F#, A#, D#

/ = slide down neck
\ = slide up neck
* = Palm mute
H = Hammer on string(s)
P = Pull off on string(s)
T = Tremolo picking
~ = Let ring
() = Optional note

Chorus/intro (Play FOUR times) "Severed, Head, Stoning!"
-|------------------------------------------------------------
-|------------------------------------------------------------
-|------------------------------------------------------------
-|------------------------------------------------------------
-|------9/10----9/10----9/10----9/10--99----------------------
-|---0007/8--0007/8--0007/8--0007/8-----7---------------------
-|------------------------------------------------------------
     ***     ***     ***     ***        *

Verse1 play 2times.  "Buried waist deep gagged and bound.."
-|----------------------------------------------
-|----------------------------------------------
-|----------------------------------------------
-|----------------------------------------------
-|---------8-------8-------8--------------------
-|---777777--777777--777777--T05320-------------
-|---------------------------------T05320-------
     ******  ******  ******   ***** *****

Chorus/intro (Play FOUR times) "Severed, Head, Stoning!"
-|------------------------------------------------------------
-|------------------------------------------------------------
-|------------------------------------------------------------
-|------------------------------------------------------------
-|------9/10----9/10----9/10----9/10--99----------------------
-|---0007/8--0007/8--0007/8--0007/8-----7---------------------
-|------------------------------------------------------------
     ***     ***     ***     ***        *

Verse2 part 1 play 2times.  "His family's head strike him"
-|----------------------------------------------
-|----------------------------------------------
-|----------------------------------------------
-|----------------------------------------------
-|---------8-------8-------8--------------------
-|---777777--777777--777777--T05320-------------
-|---------------------------------T05320-------
     ******  ******  ******   ***** *****

Verse2 part 2 play FOUR times.  "When the victim dies"
-|------------------------------------------------------------
-|------------------------------------------------------------
-|------------------------------------------------------------
-|------------------------------------------------------------
-|------------------------------------------------------------
-|---2h3p2-2h3p2-2h3p2---6--2--2-2-2-2-2-2--------------------
-|---0h1p0-0h1p0-0h1p0-0\4--0--0-0-0-0-0-0--------------------
                               * * * * * *

Chorus/intro (Play SIX times, First 2 times no vocals)
-|------------------------------------------------------------
-|------------------------------------------------------------
-|------------------------------------------------------------
-|------------------------------------------------------------
-|------9/10----9/10----9/10----9/10--99----------------------
-|---0007/8--0007/8--0007/8--0007/8-----7---------------------
-|------------------------------------------------------------
     ***     ***     ***     ***        *

Verse3 part 1 play 2 times.  "Bady beaten,in a daze"
-|----------------------------------------------
-|----------------------------------------------
-|----------------------------------------------
-|----------------------------------------------
-|---------8-------8-------8--------------------
-|---777777--777777--777777--T05320-------------
-|---------------------------------T05320-------
     ******  ******  ******   ***** *****

Verse3 part 2 play FOUR times.  "Mashed into a pulp"
-|------------------------------------------------------------
-|------------------------------------------------------------
-|------------------------------------------------------------
-|------------------------------------------------------------
-|------------------------------------------------------------
-|---2h3p2-2h3p2-2h3p2---6--2--2-2-2-2-2-2--------------------
-|---0h1p0-0h1p0-0h1p0-0\4--0--0-0-0-0-0-0--------------------
                               * * * * * *

Chorus/intro (Play TWO times, No vocals)
-|------------------------------------------------------------
-|------------------------------------------------------------
-|------------------------------------------------------------
-|------------------------------------------------------------
-|------9/10----9/10----9/10----9/10--99----------------------
-|---0007/8--0007/8--0007/8--0007/8-----7---------------------
-|------------------------------------------------------------
     ***     ***     ***     ***        *

Bridge ??? sorry email me if you think you know it

Solo ???

Verse3 part 1 play 2 times.
-|----------------------------------------------
-|----------------------------------------------
-|----------------------------------------------
-|----------------------------------------------
-|---------8-------8-------8--------------------
-|---777777--777777--777777--T05320-------------
-|---------------------------------T05320-------
     ******  ******  ******   ***** *****

Chorus/intro (Play SIX times) "Severed, Head, Stoning!"
-|------------------------------------------------------------
-|------------------------------------------------------------
-|------------------------------------------------------------
-|------------------------------------------------------------
-|------9/10----9/10----9/10----9/10--99----------------------
-|---0007/8--0007/8--0007/8--0007/8-----7---------------------
-|------------------------------------------------------------
     ***     ***     ***     ***        *

END
-|------------------------------------------------------------
-|------------------------------------------------------------
-|------------------------------------------------------------
-|------------------------------------------------------------
-|------------------------------------------------------------
-|--------14~\\\(2)-------------------------------------------
-|---(000)12~\\\\0--------------------------------------------
      ***

Please email for corrections! \m/aZe

Mexxxican58@comcast.net - my email
Udertaker58 - AIM screen name


Cannibal Corpse albums
2004 Wretched Spawn
2002 Gore Obsessed
2000 Live Cannibalism
1999 Bloodthirst
1998 Gallery of Suicide
1996 Vile
1994 The Bleeding
1992 Tomb of the Mutilated
1991 Butchered at Birth
1990 Eaten Back to Life
Wretched Spawn tabs
01Severed Head Stoning tabbass tab
02Psychotic Precision tabbass tab
03Decency Defied tabbass tab
04Frantic Disembowelment tabbass tab
05The Wretched Spawn tabbass tab
06Cyanide Assassin tabbass tab
07Festering in the Crypt tabbass tab
08Nothing Left to Mutilate tabbass tab
09Blunt Force Castration tabbass tab
10Rotted Body Landslide tabbass tab
12Bent Backwards and Broken tabbass tab
13They Deserve to Die tabbass tab

 

1