Search tabs:
Browse artists: 0-9 | A | B | C | D | E | F | G | H | I | J | K | L | M | N | O | P | Q | R | S | T | U | V | W | X | Y | Z
/ Chevelle / This Type of Thinking (Could Do Us In) (2004) / Vitamin R (Leading Us Along) guitar tab

Chevelle - Vitamin R (Leading Us Along)

Tabbed by: Eric Alli

Tuning: B F# B E G# C#

Legend

b - bend
p - pull off
h - hammer on
\\ - slide down
// - slide up
~~ - vibrato
pm - palm mute
x - muted string
* - Harmonics

Intro:
Light Distortion

Play 2x
C#-----------------------------------------------------|
G#-----------------------------------------------------|
E---9--9-9-9-9--9--9-9-9-9----7--7-7-7-7--7--7-7-7-7---|
B---0--0-0-0-0--0--0-0-0-0----0--0-0-0-0--0--0-0-0-0---|
F#-----------------------------------------------------|
B------------------------------------------------------|



Verse: (All Palm-Muted)
Heavy Distortion

Play 2x
C#-------------------------------------------------------------|
G#-------------------------------------------------------------|
E--10--10-10-10-10--10--10-10-10-10----9--9-9-9-9--9--9-9-9-9--|
B---0---0--0--0--0---0---0--0--0--0----0--0-0-0-0--0--0-0-0-0--|
F#-------------------------------------------------------------|
B--------------------------------------------------------------|


Play 2x
C#-------------------------------------------------------------|
G#-------------------------------------------------------------|
E--10--10-10-10-10--10--10-10-10-10----9--9-9-9-9--9--9-9-9-9--|
B---8---8--8--8--8---8---8--8--8--8----8--8-8-8-8--8--8-8-8-8--|
F#--8---8--8--8--8---8---8--8--8--8----8--8-8-8-8--8--8-8-8-8--|
B---8---8--8--8--8---8---8--8--8--8----8--8-8-8-8--8--8-8-8-8--|



Play 2x
C#-------------------------------------------------------------|
G#-------------------------------------------------------------|
E--10--10-10-10-10--10--10-10-10-10----9--9-9-9-9--9--9-9-9-9--|
B---0---0--0--0--0---0---0--0--0--0----0--0-0-0-0--0--0-0-0-0--|
F#-------------------------------------------------------------|
B--------------------------------------------------------------|


Play 2x
C#-------------------------------------------------------------|
G#-------------------------------------------------------------|
E--10--10-10-10-10--10--10-10-10-10----9--9-9-9-9--9--9-9-9-9--|
B---8---8--8--8--8---8---8--8--8--8----8--8-8-8-8--8--8-8-8-8--|
F#--8---8--8--8--8---8---8--8--8--8----8--8-8-8-8--8--8-8-8-8--|
B---8---8--8--8--8---8---8--8--8--8----8--8-8-8-8--8--8-8-8-8--|


Pre Chorus: (All Palm-Muted)
Heavy Distortion

C#-------------------------------------------------------------------|
G#-------------------------------------------------------------------|
E--------------------------------------------------------------------|
B--------------------------------------------------------------------|
F#-------------------------------------------------------------------|
B--0-0-0-0-0-0-0-0-0-0-0-0-0-0--3-3-3-3-3-3-3-3-3-3-3-3-3-3-3-3-3-3--|


C#-------------------------------------------------------------------|
G#-------------------------------------------------------------------|
E--------------------------------------------------------------------|
B--------------------------------------------------------------------|
F#-------------------------------------------------------------------|
B--0-0-0-0-0-0-0-0-0-0-0-0-0-0--5-5-5-5-5-5-5-5-3-3-3-3-3-3-3-3-3-3--|



Chorus:
Heavy Distortion

Play 2x
C#------------9*9*9*9*-----------------------------------------6*6*6*6*---
G#------------9-9-9-9------------------------------------------6-6-6-6----
E-------------9-9-9-9------------------------------------------6-6-6-6----
B--8--8-8-8----------------8--8-8-8h10-10--10-10----5--5-5-5--------------
F#-8--8-8-8----------------8--8-8-8h10-10--10-10----5--5-5-5--------------
B--8--8-8-8----------------8--8-8-8h10-10--10-10----5--5-5-5--------------



C#-------------------|
G#-------------------|
E--------------------|
B--5--5-5--5h3--3-3--|
F#-5--5-5--5h3--3-3--|
B--5--5-5--5h3--3-3--|


After you play the above twice:

C#----|
G#----|
E-----|
B--0--|
F#-0--|
B--0--|


Light Distortion

Play 2x
C#-----------------------------------------------------|
G#-----------------------------------------------------|
E---9--9-9-9-9--9--9-9-9-9----7--7-7-7-7--7--7-7-7-7---|
B---0--0-0-0-0--0--0-0-0-0----0--0-0-0-0--0--0-0-0-0---|
F#-----------------------------------------------------|
B------------------------------------------------------|



Verse: (All Palm-Muted)
Heavy Distortion

Play 2x
C#-------------------------------------------------------------|
G#-------------------------------------------------------------|
E--10--10-10-10-10--10--10-10-10-10----9--9-9-9-9--9--9-9-9-9--|
B---0---0--0--0--0---0---0--0--0--0----0--0-0-0-0--0--0-0-0-0--|
F#-------------------------------------------------------------|
B--------------------------------------------------------------|


Play 2x
C#-------------------------------------------------------------|
G#-------------------------------------------------------------|
E--10--10-10-10-10--10--10-10-10-10----9--9-9-9-9--9--9-9-9-9--|
B---8---8--8--8--8---8---8--8--8--8----8--8-8-8-8--8--8-8-8-8--|
F#--8---8--8--8--8---8---8--8--8--8----8--8-8-8-8--8--8-8-8-8--|
B---8---8--8--8--8---8---8--8--8--8----8--8-8-8-8--8--8-8-8-8--|


Play 2x
C#-------------------------------------------------------------|
G#-------------------------------------------------------------|
E--10--10-10-10-10--10--10-10-10-10----9--9-9-9-9--9--9-9-9-9--|
B---0---0--0--0--0---0---0--0--0--0----0--0-0-0-0--0--0-0-0-0--|
F#-------------------------------------------------------------|
B--------------------------------------------------------------|


Play 2x
C#-------------------------------------------------------------|
G#-------------------------------------------------------------|
E--10--10-10-10-10--10--10-10-10-10----9--9-9-9-9--9--9-9-9-9--|
B---8---8--8--8--8---8---8--8--8--8----8--8-8-8-8--8--8-8-8-8--|
F#--8---8--8--8--8---8---8--8--8--8----8--8-8-8-8--8--8-8-8-8--|
B---8---8--8--8--8---8---8--8--8--8----8--8-8-8-8--8--8-8-8-8--|



Pre Chorus: (All Palm-Muted)
Heavy Distortion

C#-------------------------------------------------------------------|
G#-------------------------------------------------------------------|
E--------------------------------------------------------------------|
B--------------------------------------------------------------------|
F#-------------------------------------------------------------------|
B--0-0-0-0-0-0-0-0-0-0-0-0-0-0--3-3-3-3-3-3-3-3-3-3-3-3-3-3-3-3-3-3--|


C#-------------------------------------------------------------------|
G#-------------------------------------------------------------------|
E--------------------------------------------------------------------|
B--------------------------------------------------------------------|
F#-------------------------------------------------------------------|
B--0-0-0-0-0-0-0-0-0-0-0-0-0-0--5-5-5-5-5-5-5-5-3-3-3-3-3-3-3-3-3-3--|



Chorus:
Heavy Distortion

Play 2x
C#------------9*9*9*9*-----------------------------------------6*6*6*6*---
G#------------9-9-9-9------------------------------------------6-6-6-6----
E-------------9-9-9-9------------------------------------------6-6-6-6----
B--8--8-8-8----------------8--8-8-8h10-10--10-10----5--5-5-5--------------
F#-8--8-8-8----------------8--8-8-8h10-10--10-10----5--5-5-5--------------
B--8--8-8-8----------------8--8-8-8h10-10--10-10----5--5-5-5--------------



C#-------------------|
G#-------------------|
E--------------------|
B--5--5-5--5h3--3-3--|
F#-5--5-5--5h3--3-3--|
B--5--5-5--5h3--3-3--|



Bridge:
Heavy Distortion

Play 3x
C#---------------------------------------------------------------|
G#---------------------------------------------------------------|
E--5--5--5--5----7--7--7--7--------------------------------------|
B--3--3--3--3-0--5--5--5--5-0----7-------7-------7-------7-------|
F#-3--3--3--3-0--5--5--5--5-0----5-------5-------5-------5-------|
B--3--3--3--3-0--5--5--5--5-0-------0-0-----0-0-----0-0-----0-0--|
                                   pm -|   pm -|   pm -|   pm -|


C#---------------------------------|
G#---------------------------------|
E--5--5--5--5----7--7--7--7--------|
B--3--3--3--3-0--5--5--5--5-0---5--|
F#-3--3--3--3-0--5--5--5--5-0---7--|
B--3--3--3--3-0--5--5--5--5-0------|



Play 2x
C#-----------------------------------------------------|
G#-----------------------------------------------------|
E---9--9-9-9-9--9--9-9-9-9----7--7-7-7-7--7--7-7-7-7---|
B---0--0-0-0-0--0--0-0-0-0----0--0-0-0-0--0--0-0-0-0---|
F#-----------------------------------------------------|
B------------------------------------------------------|



Chorus:
Heavy Distortion

Play 4x
C#------------9*9*9*9*-----------------------------------------6*6*6*6*---
G#------------9-9-9-9------------------------------------------6-6-6-6----
E-------------9-9-9-9------------------------------------------6-6-6-6----
B--8--8-8-8----------------8--8-8-8h10-10--10-10----5--5-5-5--------------
F#-8--8-8-8----------------8--8-8-8h10-10--10-10----5--5-5-5--------------
B--8--8-8-8----------------8--8-8-8h10-10--10-10----5--5-5-5--------------



C#-------------------|
G#-------------------|
E--------------------|
B--5--5-5--5h3--3-3--|
F#-5--5-5--5h3--3-3--|
B--5--5-5--5h3--3-3--|


(last time only)
C#----|
G#----|
E-----|
B--0--|
F#-0--|
B--0--|



Ending:

Play 4x (fades out with song)
C#-----------------------------------------------------|
G#-----------------------------------------------------|
E---9--9-9-9-9--9--9-9-9-9----7--7-7-7-7--7--7-7-7-7---|
B---0--0-0-0-0--0--0-0-0-0----0--0-0-0-0--0--0-0-0-0---|
F#-----------------------------------------------------|
B------------------------------------------------------|


Les Pauls and ivory bathrooms. Good times.
-E-mail me


Chevelle albums
2004 This Type of Thinking (Could Do Us In)
2002 Wonder What's Next
1999 Point 1
This Type of Thinking (Could Do Us In) tabs
01The Clincher tabbass tab
02Get Some tabbass tab
03Vitamin R (Leading Us Along) tabbass tab
04Still Running tabbass tab
05Breach Birth tabbass tab
06Panic Prone tabbass tab
07Another Know It All tabbass tab
08Tug-O-War tabbass tab
09To Return tabbass tab
10Emotional Drought tabbass tab
11Bend the Bracket tabbass tab

 

1