Search tabs:
Browse artists: 0-9 | A | B | C | D | E | F | G | H | I | J | K | L | M | N | O | P | Q | R | S | T | U | V | W | X | Y | Z
/ Chris Cornell / Euphoria Morning (1999) / Can't Change Me guitar tab

Guitar Tablature for 'Can't Change Me'
                                  by Chris Cornell

Album Info:
 Song:    Can't Change Me
 Artist:  Chris Cornell
 Album:   Euphoria Morning
 Version: Album version
 Uni/A&M; ASIN: B00001QGL2


 Transcribed by: Robert Seder [robertcseder@yahoo.com]

This sounds like it is played with two 6-string electrics and one
acoustic guitar. All have standard (EADGBE) tuning. This tablature
is my own work, it may be distributed freely.

Guitar Setup:
Acoustic - None
Guitar 1 - Sounds like you use a medium overdrive. On a Line6 pod, I
           Used Brit Hi-Gain, no effects, 50% drive. This guitar
           Switches between that and clean (chorus/verse respectively)
Guitar 2 - Sounds like the same overdrive setup - but with that weird
           Chris Cornell sound, so I'm not sure how to get the exact
           sound. This guitar is only used for Riff II below

Playing:
This is mainly a rythym guitar song. There are a lot of changes and a lot
of strange chords. So the hard part is remembering all the changes.
Only a couple of changes are physically difficult. But nothing
outrageous.

I am not a big fan of typing out the lyrics and putting the changes
above them, but since there is a change about every 2-4 words, it
seemed appropriate. OLGA rules forbid putting all the words. So I have
included the first few words, so you know where the changes are.

Now, onto the song....

---------
First, here are all the chords that you'll need:

   Gm   Gm7  Gm6  GmAug  Gm/A  C/E  EbMaj7
E|-3----3----3----3------3-----3----6------------
B|-3----3----3----3------3-----5----8------------
G|-3----3----3----3------3-----5----7------------
D|-5----3----5----5------5-----5----8------------
A|-5----5----7----6------5-----3----6------------
E|-3----3----3----3------5-----0-----------------

   D7   A#    A#/G#  D#/G  D#m7
E|-5----1--6------------3--6---------------------
B|-7----3--6--3---------4--7---------------------
G|-5----3--7--3------8--3--6---------------------
D|-7----3--8--3------8--5--8---------------------
A|-5----1--8---------6--6--6---------------------
E|---------6--4------3--3------------------------

--Chorus--
   A# A  C  D  Eb  D7
E|-----------------5-----------------------------
B|-----------------7-----------------------------
G|-------5--7--8---5-----------------------------
D|-8--7--5--7--8---7-----------------------------
A|-8--7--3--5--6---5-----------------------------
E|-6--5------------------------------------------

--Bridge--
   Cm  Gm  A#/F A#  A#/D  Eb#4  D7
E|-3---3---1----1---------------5----------------
B|-4---3---3----3---6-----8-----7----------------
G|-5---3---3----3---7-----8-----5----------------
D|-5---5---3----3---8-----7-----7----------------
A|-3---5---1----1---5-----6-----5----------------
E|-----3---1-------------------------------------

---------

Opening riff (also played at end of bridge)

  Riff I (Guitar 1)
E|-------------
B|-------------
G|-------------
D|-------------
A|---5---5---5-
E|-3---3---3---

  Riff II (Guitar 2)
E|------------------------------------
B|------------------------------------
G|-----------5-----------7--5---------
D|--5--7--8-----8--7--8--------8--7---
A|------------------------------------
E|------------------------------------

--------------------------------------------------

(Open with Riff I and II played over each other - 2x)

Gm  Gm7  Gm6  GmAug
She can do...

Gm  Gm/A  C/E


Gm  Gm7  Gm6  GmAug
Power to change...

Gm  Gm/A  C/E

EbMaj7  D7
Wait just...

A#  A#/G#  D#/G D#m7

N/C
Suddenly I know.. She's

A#       A          C  D
Going to change the world

A#  A  C  D
A#  A  C  D

Eb    D7     Gm
But she...

Eb    D7     Gm

Gm    Gm7    Gm6   GmAug
She has the...

Gm    Gm/A   C/E


Gm    Gm7    Gm6   GmAug
She can...

Gm    Gm/A   C/E

EbMaj7    D7
Wait just...

A#  A#/G#   D#/G D#m7
I can see that...

N/C
Suddenly I know.. She's

A#  A  C  D
Going to...

A#  A  C  D
A#  A  C  D

Eb  D7  Gm
But she...

Eb  D7  Eb

--Bridge--
Cm
Suddenly..

Gm                A#/F
Everything thatīs wrong

     A#
With me, yeah

A#/D                   Eb#4              D7       Gmn
What ......... ....... only thing I really have ... at all

(Repeat intro 1x)

--Bridge--

EbMaj7    D7
Wait just...

A#  A#/G#  D#/G  D#m7
I can see...

N/C
Suddenly I know.. She's

A#  A  C  D
Going ....

A#  A  C  D
A#  A  C  D

Eb  D7  Eb
But she...

Eb  D7  Gm
No, she...


Chris Cornell albums
1999 Euphoria Morning
Euphoria Morning tabs
01Can't Change Me tabbass tab
03Preaching the End of the World tabbass tab
04Follow My Way tabbass tab
05When I'm Down tabbass tab
06Mission tabbass tab
09Sweet Euphoria tabbass tab
10Disappearing One tabbass tab
11Pillow of Your Bones tabbass tab
12Steel Rain tabbass tab

 

1