Search tabs:
Browse artists: 0-9 | A | B | C | D | E | F | G | H | I | J | K | L | M | N | O | P | Q | R | S | T | U | V | W | X | Y | Z
/ Chris Cornell / Euphoria Morning (1999) / Disappearing One guitar tab

TAB CREATED BY DANNIE JUGE 

This is the way i play this song; i did't see it from a tab book or
something, so some of the chords may not fit to you, but for me they do.
The tab may not coincide exactly with the lyric below(timingly speaking),
so you'll need to use your imagination and make it fit with the original
song's tempo or by filling the silent spaces.
Email me if you have any comment.


*Disappearing One
*Chris Cornell
*Euphoria Morning

*Tuning: D#G#C#F#A#D# (Half Step Down)


*Keyboards Intro

   What have you done, my little spark?

D#-|----------------------------------|-----x--x--x---x-----------------|
A#-|----------------------------------|-----3--3--3---0-----------------|
F#-|----------------------------------|-----2--2--2---0-----------------|
C#-|----------------------------------|-----0--0--0---0-----------------|
G#-|----------------------------------|-----0--0--0---------------------|
D#-|----------------------------------|-----1--1--1---------------------|
   Cursing my name 'cause again I put you out

D#-|-x--x---x----x--x--x---x-----x---x|-------x--x--x------x-------x----|
A#-|-2--2---2----2--2--2---3-----3---3|-------1--1--1------4-------4----|
F#-|-2--2---2----0--0--0---2-----2---2|-------2--2--2------5-------5----|
C#-|-2--2---2----2--2--2---3-----3---3|-------2--2--2------7-------7----|
G#-|-0--0---0----0--0--0---0-----0---0|-------0--0--0------6-------6----|
D#-|----------------------------------|---------------------------------|
       Falling apart,  you tell yourself you are,dreaming o___nly of

D#-|-----x----x-----x-----x----x---x--|xxxx---x--xxxx---0--0000---------|
A#-|-----3----3-----2-----0----0---3--|3333---1--1111---3--3333---------|
F#-|-----2----2-----2-----0----0---2--|2222---2--2222---1--1111---------|
C#-|-----0----0-----2-----0----0---0--|0000---0--0000---0--0000---------|
G#-|-----0----0-----0-----2--------0--|0000---0--0000---2--2222---------|
D#-|-------------------------------1--|1111---1--1111---0--0000---------|
     the o__nes who never dream of you

D#-|-0-----0000-----x---xxxx---x--xxxx|--0--0000---0--0000--------------|
A#-|-3-----3333-----3---3333---1--1111|--3--3333---3--3333--------------|
F#-|-1-----1111-----2---2222---2--2222|--1--1111---1--1111--------------|
C#-|-2-----2222-----0---0000---0--0000|--0--0000---2--2222--------------|
G#-|-2-----2222-----0---0000---0--0000|--2--2222---2--2222--------------|
D#-|-0-----0000-----1---1111---1--1111|--0--0000---0--0000--------------|
     never dream of you


*Chorus:

D#-|-1---1---0---0-----1--1--111---1--|
A#-|-1---1---1---1-----3--3--332---2--|
F#-|-2---2---2---2-----2--2--222---2--|
C#-|-3---3---2---2-----0--0--000---0--|
G#-|-3---3---3---3-----0--0--000---0--|
D#-|-1---1----------------------------|
     I'm your  disappearing one
     vanish when the curtain's drawn

D#-|-----1------1111--1---1111--0-----|--0000---1--1-------------1------|
A#-|-----3------3333--3---3333--1-----|--1111---3--2-------------2------|
F#-|-----3------3333--0---0000--0-----|--0000---2--2-------------3------|
C#-|-----3------3333--3---3333--2-----|--2222---0--0-------------3------|
G#-|-----1------1111--2---2222--3-----|--3333---0--0-------------1------|
D#-|----------------------------0-----|--0000--------------------1------|
     But I will come again, and you will let me in    and you'll see

D#-|---1111--0-0--3-------xx---xxxx---|
A#-|---2222--3-3--1-------01---1111---|
F#-|---3333--0-0--0-------02---2222---|
C#-|---3333--2-2--2-------03---3333---|
G#-|---1111--0-0--0--------3---3333---|
D#-|---1111--0-0-----------1---1111---|
     I never disappear for lo__ng


*Main Riff:

D#-|-x--x---x----x--x--x---x-----x---x|-------x--x--x------x-------x----|
A#-|-2--2---2----2--2--2---3-----3---3|-------1--1--1------4-------4----|
F#-|-2--2---2----0--0--0---2-----2---2|-------2--2--2------5-------5----|
C#-|-2--2---2----2--2--2---3-----3---3|-------2--2--2------7-------7----|
G#-|-0--0---0----0--0--0---0-----0---0|-------0--0--0------6-------6----|
D#-|----------------------------------|---------------------------------|
       Into your room        I stumble        now          Too tired to

D#-|-----x----x----------x-----------x|---x---x--|xxxx--x---------------|
A#-|-----3----3----------2-----------0|---0---3--|3333--0---------------|
F#-|-----2----2----------2-----------0|---0---2--|2222--0---------------|
C#-|-----0----0----------2-----------0|---0---0--|0000--0---------------|
G#-|-----0----0----------0-----------2|-------0--|0000------------------|
D#-|----------------------------------|-------1--|1111------------------|
        cower, and it's too late to draw you out


*Play This Next Part Same Same As "Falling Apart, you tell......":

And there you lie like a painting of Christ
Bleeding on the heads of the ones who nailed you down


*Solo(Play It With Main Riff):

D#-|--------------------------------------------------------------------|
A#-|-5---10\--------5/6\5--4---0-3---5b-2--4b5b4--2----/6\5-------------|
F#-|---------2-/-3------------------------------------------------------|
C#-|--------------------------------------------------------------------|
G#-|--------------------------------------------------------------------|
D#-|--------------------------------------------------------------------|


*Chorus 2(With A Little Change):

D#-|---1111--0-0--3-------xx---xxxx---|-0--0--0x------------------------|
A#-|---2222--3-3--1-------01---1111---|-3--3--30------------------------|
F#-|---3333--0-0--0-------02---2222---|-1--1--10------------------------|
C#-|---3333--2-2--2-------03---3333---|-0--0--00------------------------|
G#-|---1111--0-0--0--------3---3333---|-2--2--2-------------------------|
D#-|---1111--0-0-----------1---1111---|-0--0--0-------------------------|
  ...I never disappear for lo__ng       ^ These Chords Are Just Before
                                          The Chorus Get Repeated For
                                          Third Time.

*Outro:

D#-|----xx--x---xx--     x--x--x---xx-                 x--|
A#-|----01--1---11--     2--1--1---11-                 1--|
F#-|----02--2---22--     3--2--2---22-                 2--|
C#-|----03--3---33--     3--3--3---33-                 3--|
G#-|-----3--3---33--     1--3--3---33-                 3--|
D#-|-----1--1---11--     1--1--1---11-                 1--|
  ...for lo_____ng       ^ Play This Part 4 Times      ^ And End With
                                                         This Chord
                                                         (Let It Ring)

*NOTES:

1.- When I Write A:
    -X- Don't Play It A As Complete Chord, But Play It As A Fill Sound
    -0- Between Previous And Next Chord, Just As Fast And Discreet As You
    -0- Can.
    -0-
    ---
    ---

2.- You Can Use The Main Riff In "What Have You Done? My Little Spark..."
    If You Want, But In The Original Song Chris Doesn't Play Guitar Until
    The Part That Sings "Out...". You Decide.


TAB CREATED BY DANNIE JUGE 


Chris Cornell albums
1999 Euphoria Morning
Euphoria Morning tabs
01Can't Change Me tabbass tab
03Preaching the End of the World tabbass tab
04Follow My Way tabbass tab
05When I'm Down tabbass tab
06Mission tabbass tab
09Sweet Euphoria tabbass tab
10Disappearing One tabbass tab
11Pillow of Your Bones tabbass tab
12Steel Rain tabbass tab

 

1