Search tabs:
Browse artists: 0-9 | A | B | C | D | E | F | G | H | I | J | K | L | M | N | O | P | Q | R | S | T | U | V | W | X | Y | Z
/ CKY / An Answer Can Be Found (2005) / All Power to Slaves guitar tab

Song: All Power to Slaves
Artist: CKY
Album: An Answer Can Be Found
Tuning: D G C F (A D)
guitarists: Deron Miller, Chad I Ginsburg
tabber: Mike, leftyguitar59@aol.com

nobody was tabbing anything off of AACBF so I felt I needed to step in. This probably isn't 100% correct but it will give you the idea. The whole song (minus the solo) is played with an octave effect on and slight delay

Intro: x2 (theres a harmony in guitar 2 i couldnt figure out, listen for rhythmn)
F:-------------------1-4-3-------------------------1-3-4-1---6-4-8-|
C:-----------4-----4-------4-1-4-----------4-----4---------4-------|
G:---6-4---------------------------6-4-----------------------------|
D:-4-----7-4---4-0---------------4-----7-4---4-2-------------------|

riff 2: x2
F:-4--4-4-4h6p4---8--8-6-4-6-4-3~-6--6-6-4h6ph---8--8-6-4-6-4-3~--|
C:-2--2-2-------4-6---------------4--4-4-------4-6----------------|
G:----------------------------------------------------------------|
D:----------------------------------------------------------------|
i like to add a pinch harmonic ^here, even though it's not in the recording

verse: intro x2
       riff 2 x2

riff 3 to chorus: (the parenthesis are guitar 2's lead in)
F:--------------------------------------|
C:-6--6-6--6-8--8-11-----------------(1)|
G:-4--4-4--4-6--6-9---6-4---4-----4(4)4-|
D:------------------------7---7-4-2-2-2-|
   .  . .  . .  .     . . . . . . . . .

chorus guitar 1: all palm muted x4
F:-------------------------------------------|
C:-------------------------------------------|
G:-2-2-2-2-2-2-2-2-2-2-2-2-6-4---4-----4-4-4-|
D:-0-0-0-0-0-0-0-0-0-0-0-0-----7---7-4-2-2-2-|

guitar 2: some weird resonance effect, again listen for rhythm
F:-4--6p4h6--6p4/8-6p4--1-1~-|---|-----------|
C:---------------------------|X3-|-/9-8-6-4~-|
G:---------------------------|---|-----------|
D:---------------------------|---|-----------|
                                  ^ goes with "power to slaves"

intro riff x2
riff 2 x2
riff 3 x1
chorus

solo (rhythmn): intro riff x2
                riff 2 x2

solo (lead): heavy wah and vibrato
D:---------------------------------23-16h19-23-16h19-23-16h19-24-16h19-23-16h19-
A:-----9~-19^21~--19^21~-19^21~-------------------------------------------------
F:------------------------------------------------------------------------------
C:-6~---------------------------//----------------------------------------------
G:------------------------------//----------------------------------------------
D:------------------------------//----------------------------------------------

D:-23-16h19-----------------------------16-18-18-19-18-19-21-19-21-21^23~~-|
A:----------16~-19-14-16-12-19-14-16-12------------------------------------|
F:-------------------------------------------------------------------------|
C:-------------------------------------------------------------------------|
G:-------------------------------------------------------------------------|
D:-------------------------------------------------------------------------|
 the last section of the song is tremolo picked (picked fast), the notes are shown but not the rhythmn,

end with
riff 3: x1
chorus

any questions email me leftyguitar59@aol.com, and Force Change Now ~


CKY albums
2005 An Answer Can Be Found
2002 Infiltrate Destroy Rebuild
2001 CKY, Vol. 2
2001 CKY, Vol. 1
An Answer Can Be Found tabs
01Suddenly Tragic tabbass tab
02The Way You Lived tabbass tab
03Dressed in Decay tabbass tab
04Familiar Realm tabbass tab
05All Power to Slaves tabbass tab
07Behind the Screams tabbass tab
08Deceit Is Striking Gold tabbass tab
09As the Tables Turn tabbass tab
10Sniped tabbass tab
11Don't Hold Your Breath tabbass tab

 

1