Search tabs:
Browse artists: 0-9 | A | B | C | D | E | F | G | H | I | J | K | L | M | N | O | P | Q | R | S | T | U | V | W | X | Y | Z
/ CKY / An Answer Can Be Found (2005) / Behind the Screams guitar tab

Band: CKY
 Album: An Answer Can Be Found
 Song: Behind The Screams
 Tabber: Jesus Danger Christ
 Email: mickcus@hotmail.com


 Kinda difficult to tab at parts and because I was using an electric guitar it was difficult to know some
 notes. However I'm pretty sure that this is perfect, except maybe for the odd note and also Deron might
 play it lower on the neck, as you can. I was gonna tab different variations of where you could play it but
 wasn't bothered. It does sound the same though. Its all there. I'm not sure if there are two guitars in
 the song for some parts but none of the song's too hard to play irrelevant. Enjoy

 ***Note: Some parts of the song sound the same but the notes change a little, read every line cuz some of
    them change abit***



 e|-------------10-----10s/12--8-----8s/10-7-|-5s/3-3s/2-2------2---2h3h2------0-2---3-------2---3------|
 B|-8-----10---------------------------------|------------3-3----3--------0------0-----0--3--------3s/--|
 G|---0------0-----0-------------0-----------|-------------------------------------0----------0---------|
 D|------------------------------------------|-0--------------0-----------------------------------------|
 A|-7---7-------7----7---------7---7-------6-|---------------------------------3----------2-------------|
 E|------------------------------------------|----------------------------------------------------------|


 e|------------10-----10s/12-8-----8s/10-7---7-|-5/3-3s/2-2------2---2h3h2------0-2---3-------2---3-----|
 B|-8-----10-------------------------------7---|------------3-3----3--------0-------0---0--3----3---3s/-|
 G|---0------0----0------------0---------------|--------------------------------------------------------|
 D|--------------------------------------------|-0--------------0---------------------------------------|
 A|-7---7------7----7--------7---7-------6-----|--------------------------------3----------2------------|
 E|--------------------------------------------|--------------------------------------------------------|





 e|----------------------------------------------12-|-7-5-5s/3-3s/--3p2-----5-|-0-2---3------2---3------|
 B|-8-------10----8---------10----10-------12----12-|-8-7-7s/5-5s/------3---3-|-----0---0--3---3---3s/--|
 G|---9---9----9-----9----9----9-----9---9----9-----|-------------------------|-------------------------|
 D|-------------------------------------------------|---------------0-----0---|-------------------------|
 A|-7---7-------------------------------------------|-------------------------|-3----------2------------|
 E|---------------10---10---------8----8---------8--|-0-----------------------|-------------------------|


 e|----------------------------------------------12-|-7-5-5s/3-3s/--3p2-----5-|-0-2---3------2---3------|
 B|-8-------10----8---------10----10-------12----12-|-8-7-7s/5-5s/------3---3-|---------0--3-------3s/--|
 G|---9---9----9-----9----9----9-----9---9----9-----|-------------------------|-------------------------|
 D|-------------------------------------------------|---------------0-----0---|-------------------------|
 A|-7---7-------------------------------------------|-------------------------|-3---3------2---2--------|
 E|---------------10---10---------8----8---------8--|-0-----------------------|-------------------------|





 e|--------------------------|------------------|--------------------------------------------------||
 B|-5s/7---7h8p7-5---3---5---|-5s/7----7h8p7--5-|--------------------------------------------------||
 G|------------------------0-|------------------|--------------------------------------------------||
 D|--------------------------|-0-----0----------|--------------------------------------------------||
 A|--------------------------|----------------3-|--------------------------------------------------||
 E|-0----0---------0---0-----|------------------|--------------------------------------------------||
                                                                                                    | X2
 e|--10s/7-7---7s/10---10s/12---12s/7------7-|-----------------------------------------------------||
 B|--12s/8-8---8s/12---12s/12---12s/8----8---|--10-8---10----10s/12--7-----------------------------||
 G|------------------------------------9-----|-----------------------7-----------------------------||
 D|------------------------------------------|-----------------------9-----------------------------||
 A|------------------------------------------|-----------------------9-----------------------------||
 E|--0-------0-------0--------0--------------|--8----8-----8---------7-----------------------------||






 e|----------------------------------------------12-|-0-2---3-------2---3-----3s/5--3---2----0----------|
 B|-8-------10----8---------10----10-------12----12-|----------0--3-------3---------------0--0----------|
 G|---9---9----9-----9----9----9-----9---9----9-----|----------------------------------------0----------|
 D|-------------------------------------------------|-------------------------0-------0-1----2----------|
 A|-7---7-------------------------------------------|-3---3-------2---2----------------------2----------|
 E|---------------10---10---------8----8---------8--|----------------------------------------0----------|



 Hope the tab isn't confusing, It shouldn't be anyway. I made it as straight forward as possible.
 Once again, The tab is as far as i can tell near perfect. If you find any mistakes or a 2nd guitar
 somewhere email me.
 This song was not writin by me. CKY should be thanked and get all the credit for it. CKY rock!
 Enjoy... and sorrow


CKY albums
2005 An Answer Can Be Found
2002 Infiltrate Destroy Rebuild
2001 CKY, Vol. 2
2001 CKY, Vol. 1
An Answer Can Be Found tabs
01Suddenly Tragic tabbass tab
02The Way You Lived tabbass tab
03Dressed in Decay tabbass tab
04Familiar Realm tabbass tab
05All Power to Slaves tabbass tab
07Behind the Screams tabbass tab
08Deceit Is Striking Gold tabbass tab
09As the Tables Turn tabbass tab
10Sniped tabbass tab
11Don't Hold Your Breath tabbass tab

 

1