Search tabs:
Browse artists: 0-9 | A | B | C | D | E | F | G | H | I | J | K | L | M | N | O | P | Q | R | S | T | U | V | W | X | Y | Z
/ CKY / CKY, Vol. 1 (2001) / My Promiscuous Daughter guitar tab

My Promiscuous Daughter:cKy- from Camp kill yourself 
Tuned half step down/ Eb Ab Db Gb Bb eb
To obtain this you must tune the low e string to the sixth fret of the A string then retune the guitar as you normlly would

VERSE
  E5               G5                    d5
e----------------------------------------0---------------
-----------------------------------------3-------------
-----------------------------------------2-------------
2222222222-------55555555555-------------0--------------
2222222222-------55555555555---------------------------
0000000000-------33333333333---------------------------
Play X4

CHORUS

E5
Only domestic free

D5
I caught a graphic pain
E5               D5
Some say to innovate
E5                 D5
I don't need that again

VERSE
E5                            G5
 I caught my daughter giving head to my brother

Bridge
F#m

verse 2
-------------------------------------------
-------------------------------------------
-------------------------------------------
-----9-9---7-7---5-7--5-7---7-5-7----------
------------------------------------5---5/7
-------------------------------------------
Repeat


CKY albums
2005 An Answer Can Be Found
2002 Infiltrate Destroy Rebuild
2001 CKY, Vol. 2
2001 CKY, Vol. 1
CKY, Vol. 1 tabs
0196 Quite Bitter Beings tabbass tab
02Rio Bravo tabbass tab
03Disengage the Simulator tabbass tab
04The Human Drive in Hi-Fi tabbass tab
05Lost in a Contraption tabbass tab
06Knee Deep tabbass tab
07My Promiscuous Daughter tabbass tab
08Sara's Mask tabbass tab
09To All of You tabbass tab

 

1