Search tabs:
Browse artists: 0-9 | A | B | C | D | E | F | G | H | I | J | K | L | M | N | O | P | Q | R | S | T | U | V | W | X | Y | Z
/ CKY / CKY, Vol. 1 (2001) / To All of You guitar tab

Band:CKY (Camp Kill Yourself)
Song: To all of You (from the movie Cky landspeed)
Album: Camp Volume 1
Tabbed by: Adam Schuster
Date: August 9, 2002
Tuning: Standard E A D G B E
use distrotion and a auto wah (a regular wah pedal will work or flanger)

Main riff
---------------------------------------------------------------------
---------------------------------------------------------------------
---------------------------------------------------------------------
66666666--------6666666644444444-------------------------------------
44444444666666664-------2------------44444444666666667777777799999999
--------44444444---------------------22222222444444445555555577777777

Lead
---------------------------------------------------------------------	
---------------------------------------------------------------------
---------------------------------------------------------------------	
--6-5-4---6-5-4---6-5-4h5p4---4/-6 4---------------------------------	
4--------4--------4-----------------4-22-11-00-----------------------	
---------------------------------------------------------------------

rhyme during lead
---------------------------------------------------------------------	
---------------------------------------------------------------------	
---------------------------------------------------------------------	
66666666--------6666666----------------------------------------------	
444444446666666644444447777777---------------------------------------	
--------44444444-------5555555---------------------------------------

Chorus
---------------------------------------------------------------------	
---------------------------------------------------------------------	
13-13-13-13-13-13-13-13-11-11-11-11-11-11-11-11---9-9-9-9-9-9-9-9----	
---------------------------------------------------------------------
11-11-11-11-11-11-11-11--9--9--9---9---9--9---9---7-7-7-7-7-7-7-7----
---------------------------------------------------------------------

Riff after chorus
---------------------------------------------------------------------	
---------------------------------------------------------------------
11/slide---13---11/-13---11/--13--11/--13----------------------------
---------------------------------------------------------------------	
9/slide---11----9/--119/----119/--11-------------------------------
---------------------------------------------------------------------

Bridge
---------------------------------------------------------------------	
---------------------------------------------------------------------	
-----------------13-13-13-13-13-13-13-11-11-11-11-11-9-9-9-9-9-------	
66666666-------------------------------------------------------------4444444466666666-11-11-11-11-11-11-11-9-9-9-9-9--7-7-7-7-7-------	
--------44444444-----------------------------------------------------

Enjoy
CKY2K


CKY albums
2005 An Answer Can Be Found
2002 Infiltrate Destroy Rebuild
2001 CKY, Vol. 2
2001 CKY, Vol. 1
CKY, Vol. 1 tabs
0196 Quite Bitter Beings tabbass tab
02Rio Bravo tabbass tab
03Disengage the Simulator tabbass tab
04The Human Drive in Hi-Fi tabbass tab
05Lost in a Contraption tabbass tab
06Knee Deep tabbass tab
07My Promiscuous Daughter tabbass tab
08Sara's Mask tabbass tab
09To All of You tabbass tab

 

1