Search tabs:
Browse artists: 0-9 | A | B | C | D | E | F | G | H | I | J | K | L | M | N | O | P | Q | R | S | T | U | V | W | X | Y | Z
/ CKY / Infiltrate Destroy Rebuild (2002) / Close Yet Far guitar tab

Artist: Cky
Song: Close Yet Far
Album: Infiltrate Destroy Rebuild
Tabbed by: Craig Gibson
Email: IbanezRgr320@Hotmail.com

Acoustic (Riff 1) VERSES
|--------------------------------------------------------------|
|--------------------------------------------------------------|
|-0-----------2------------------------------------------------|
|----2-----2-----0-----0---9--10—10/12\\10---9-----0------------|
|-------2-----------0-------------------------10---------------|
|-0-----------2------------------------------------------------|
             

|--------------------------------------------------------------|
|--------------------------------------------------------------|
|-0-----------2----------------------------------0-------------|
|----2-----2-----0-----0---9--10—10/12\\10---9------------------|
|-------2-----------0-------------------------10---------------|
|-0-----------2------------------------------------------------|
             

|--------------------------------------------------------------|
|-0------------------------------------------------------------|
|--------0---2-------------------------------------------------|
|----2-------------0-----0---9--10—10/12\\10---9-----0----------|
|------2--------------0-------------------------10-------------|
|-0----------2-------------------------------------------------|
           

|--------------------------------------------------------------|
|--------------------------------------------------------------|
|-0-----------2------------------------------------------------|
|----2-----2-----0-----0---9--10—10/12\\10---9------------------|
|-------2-----------0-------------------------10---------------|
|-0-----------2------------------------------------------------|
             
 
Electric w/distortion CHORUS
Note: the chord in Brackets is played while the 2nd guitar
plays the riff after it (they are layerd).

\"close yet far..\"
|--------------------------------------------------------------|
|--------------------------------------------------------------|
|--------------------------------------------------------------|
|-5-----------7------(9)-------9--10—10/12\\10---9--------------|
|-5-----------7------(9)--------------------------10-----------|
|-3-----------5------(7)---------------------------------------|

\"drop me a line..\"
|--------------------------------------------------------------|
|--------------------------------------------------------------|
|--------------------------------------------------------------|
|-9-----------7------(5)------9--10—10/12\\10---9---------------|
|-9-----------7------(5)-------------------------10------------|
|-7-----------5------(3)---------------------------------------|

\"i\'ll tip my hat..\"
|--------------------------------------------------------------|
|--------------------------------------------------------------|
|--------------------------------------------------------------|
|-5-----------7------(9)-------9--10—10/12\\10---9--------------|
|-5-----------7------(9)--------------------------10-----------|
|-3-----------5------(7)---------------------------------------|

\"though i never never never ever..\"
|--------------------------------------------------------------|
|--------------------------------------------------------------|
|--------------------------------------------------------------|
|-5-----------7------(5)------9--10—10/12\\10---9---------------|
|-5-----------7------(5)-------------------------10------------|
|-3-----------5------(3)---------------------------------------|
 
 
[Acoustic]AFTER CHORUS RIFF 2
|--------------------------------------------------------------|
|-0---------------/5-/5----------------------------------------|
|----2--0------------------------------------------------------|
|-----------5-4------------------------------------------------|
|-2---------------/7-/7----------------------------------------|
|--------------------------------------------------------------|


CKY albums
2005 An Answer Can Be Found
2002 Infiltrate Destroy Rebuild
2001 CKY, Vol. 2
2001 CKY, Vol. 1
Infiltrate Destroy Rebuild tabs
01Escape From Hellview tabbass tab
02Flesh Into Gear tabbass tab
03Sink Into the Underground tabbass tab
04Attached at the Hip tabbass tab
05Frenetic Amnesic tabbass tab
06Shock & Terror tabbass tab
07Plastic Plan tabbass tab
08Inhuman Creation Station tabbass tab
09Sporadic Movement tabbass tab
10Close Yet Far tabbass tab

 

1