Search tabs:
Browse artists: 0-9 | A | B | C | D | E | F | G | H | I | J | K | L | M | N | O | P | Q | R | S | T | U | V | W | X | Y | Z
/ CKY / Infiltrate Destroy Rebuild (2002) / Plastic Plan guitar tab

main riff:
|--------------------------------------------------------|
|--------------------------------------------------------|
|--------------------------------------------------------|
|--------------------------------------------------/4-2--|
|-7-7777777-7h9-7--------------4-4444444-4h5-4---2-------|
|-5-5555555-------9-7-5-7-9-7--2-2222222-------5---------|
    .......

fill:
|---------------|
|---------------|
|---------------|
|---------------|
|-4-2---2-4-2---|
|-----5-------5-|

chorus:
|------------------------------------------------------------------------------|
|------------------------------------------------------------------------------|
|------------------------------------------------------------------------------|
|-------------------------------------------------------7766-44444466-44444444-|
|-777777777-7-9-7-9-7-/11-4444444444444444-555555555555-5544-22002244-22222222-|
|-555555555-5-7-5-7-5-/-9-2222222222222222-333333333333------------------------|
  .........               ................ ............


submitted by cKy77


CKY albums
2005 An Answer Can Be Found
2002 Infiltrate Destroy Rebuild
2001 CKY, Vol. 2
2001 CKY, Vol. 1
Infiltrate Destroy Rebuild tabs
01Escape From Hellview tabbass tab
02Flesh Into Gear tabbass tab
03Sink Into the Underground tabbass tab
04Attached at the Hip tabbass tab
05Frenetic Amnesic tabbass tab
06Shock & Terror tabbass tab
07Plastic Plan tabbass tab
08Inhuman Creation Station tabbass tab
09Sporadic Movement tabbass tab
10Close Yet Far tabbass tab

 

1