Search tabs:
Browse artists: 0-9 | A | B | C | D | E | F | G | H | I | J | K | L | M | N | O | P | Q | R | S | T | U | V | W | X | Y | Z
/ Coheed & Cambria / In Keeping Secrets of Silent Earth: 3 (2003) / The Light & the Glass guitar tab



The Light and the Glass
tabbed by Steve Osso
If it isn't lining up right copy it into notepad

Both Guitars (4x)
e|-2--2------------------|
b|--3--3-----------------|
g|---2--2----------------|
d|-0--0------4-5-7-5-4p0-|
a|-------4-5-------------|
e|-----------------------|

e|-----------------------|
b|-----------------------|
g|-----2----2----2-------|
d|---0----0----0-------0-|
a|-------------------5---|
e|-3----3----3-----3-----|

e|---------------------------|
b|-------0-------------0-----|
g|-2-------2-------2-0-----0-|
d|---0-------0-2h4-------4---|
a|-2---2---------------------|
e|---------------------------|

e|---------------------------|
b|-10-----10-----------------|
g|----0------0---------------|
d|------0------0-----0-----0-|
a|-12-----12-------0-----0---|
e|---------------7-----9-----|

e|-----------------------|
b|-10---10---10---10-----|
g|----9----9----9----9---|
d|-0----0----0----0----0-|
a|-----------------------|
e|-----------------------|
______________________________________________

Guitar 1 (2x)
e|-------------------------|
b|-------------------------|
g|-------------------------|
d|-7-7-7-7-7-7-7-7-7-7-7-7-|
a|-7-7-7-7-7-7-7-7-7-7-7-7-|
e|-5-5-5-5-5-5-5-5-5-5-5-5-|

e|-------------------------|
b|-------------------------|
g|-------------------------|
d|-5-5-5-5-5-5-5-5-5-5-5-5-|
a|-5-5-5-5-5-5-5-5-5-5-5-5-|
e|-3-3-3-3-3-3-3-3-3-3-3-3-|

Guitar 2 (2x)
e|-------0-----------0-----|
b|---------0-----------0---|
g|---6-------6---6-------6-|
d|-----7-----------7-------|
a|-------------------------|
e|-5-----------5-----------|

e|-------0-----------0-----|
b|---------0-----------0---|
g|---6-------6---6-------6-|
d|-----7-----------7-------|
a|-------------------------|
e|-5-----------5-----------|

e|-------0--------------------------|
b|---------3------------------------|
g|---4-------4----------------------|
d|--------------7-5-4-----7-5-4-----|
a|-5---5--------------7-5-------7-5-|
e|----------------------------------|
______________________________________________
Guitar 1 (4x)
e|-------------------------------------------------|
b|-------------------------------------------------|
g|-4-4-4-4-4-4-4-4-4-4-4-4-2-2-2-2-2-2-------------|
d|-4-4-4-4-4-4-4-4-4-4-4-4-2-2-2-2-2-2-5-5-5-5-5-5-|
a|-2-2-2-2-2-2-0-0-0-0-0-0-0-0-0-0-0-0-5-5-5-5-5-5-|
e|-------------------------------------3-3-3-3-3-3-|
______________________________________________
Guitar 1 (2x)
e|-----------------------------------------------------------------|
b|-----------------------------------------------------------------|
g|-----------------------------------------------------------------|
d|-9-9-9-9-9-9-7-7-7-7-7-7-5-5-5-5-5-5-5-5-5-5-5-5-5-5-5-5-5-5-5-5-|
a|-9-9-9-9-9-9-7-7-7-7-7-7-5-5-5-5-5-5-5-5-5-5-5-5-5-5-5-5-5-5-5-5-|
e|-7-7-7-7-7-7-5-5-5-5-5-5-3-3-3-3-3-3-3-3-3-3-3-3-3-3-3-3-3-3-3-3-|
Guitar 2 (2x)
e|-----------------------------------------------------------|
b|-----------------------------------------------------------|
g|-----------------------------------------------------------|
d|-9~----------11~---------12~-------12~-------12~-------12~-|
a|-x-----------x-----------x---------x---------x---------x---|
e|-7~----------9~----------10~-------10~-------10~-------10~-|

Guitar fill (end of 2x)
e|-----------|
b|-----------|
g|------11b~-|
d|-9---------|
a|---10------|
e|-----------|
______________________________________________
Guitar 1 (4x)
e|----------------------------------------|
b|----------------------------------------|
g|----------------------------------------|
d|-5-5--5-5--7-7--7-7--5-5--5-5--5-5--5-5-|
a|-7-7--7-7--5-5--5-5--3-3--3-3--3-3--3-3-|
e|----------------------------------------|
______________________________________________
Guitar 1 (2x)
e|-------------------------------------------------|
b|-------------------------------------------------|
g|-------------------------------------------------|
d|-7-7-7-7-7-7-7-7-7-7-7-7-7-7-7-7-7-7-7-7-7-7-7-7-|
a|-7-7-7-7-7-7-7-7-7-7-7-7-7-7-7-7-7-7-7-7-7-7-7-7-|
e|-5-5-5-5-5-5-5-5-5-5-5-5-5-5-5-5-5-5-5-5-5-5-5-5-|

e|-------------------------------------------------|
b|-------------------------------------------------|
g|-5-5-5-5-5-5-5-5-5-5-5-5-5-5-5-5-5-5-5-5-5-5-5-5-|
d|-5-5-5-5-5-5-5-5-5-5-5-5-5-5-5-5-5-5-5-5-5-5-5-5-|
a|-3-3-3-3-3-3-3-3-3-3-3-3-3-3-3-3-3-3-3-3-3-3-3-3-|
e|-------------------------------------------------|
______________________________________________
Working on the "Liar" Part
______________________________________________
Guitar 1 (x4)
e|-------------------------------------------------|
b|-------------------------------------------------|
g|-4-4-4-4-4-4-4-4-4-4-4-4-2-2-2-2-2-2-------------|
d|-4-4-4-4-4-4-4-4-4-4-4-4-2-2-2-2-2-2-5-5-5-5-5-5-|
a|-2-2-2-2-2-2-0-0-0-0-0-0-0-0-0-0-0-0-5-5-5-5-5-5-|
e|-------------------------------------3-3-3-3-3-3-|
______________________________________________
Guitar 1 (2x)
e|-----------------------------------------------------------------|
b|-----------------------------------------------------------------|
g|-----------------------------------------------------------------|
d|-9-9-9-9-9-9-7-7-7-7-7-7-5-5-5-5-5-5-5-5-5-5-5-5-5-5-5-5-5-5-5-5-|
a|-9-9-9-9-9-9-7-7-7-7-7-7-5-5-5-5-5-5-5-5-5-5-5-5-5-5-5-5-5-5-5-5-|
e|-7-7-7-7-7-7-5-5-5-5-5-5-3-3-3-3-3-3-3-3-3-3-3-3-3-3-3-3-3-3-3-3-|
Guitar 2 (2x)
e|-----------------------------------------------------------|
b|-----------------------------------------------------------|
g|-----------------------------------------------------------|
d|-9~----------11~---------12~-------12~-------12~-------12~-|
a|-x-----------x-----------x---------x---------x---------x---|
e|-7~----------9~----------10~-------10~-------10~-------10~-|

Guitar fill (end of 2x)
e|-----------|
b|-----------|
g|------11b~-|
d|-9---------|
a|---10------|
e|-----------|
______________________________________________
Guitar 1 (4x)
e|----------------------------------------|
b|----------------------------------------|
g|----------------------------------------|
d|-5-5--5-5--7-7--7-7--5-5--5-5--5-5--5-5-|
a|-7-7--7-7--5-5--5-5--3-3--3-3--3-3--3-3-|
e|----------------------------------------|
______________________________________________
Guitar 1 (4x)
e|-------------------------------------------------------|
b|-------------------------------------------------------|
g|-------------------------------------------------------|
d|-------------------------------------------4-4-4-4-4-4-|
a|-4-4--0-4-5-0--4-4--0-4-5-0--4-4--0-4-5-0--2-2-2-2-2-2-|
e|-2-2-----------2-2-----------2-2-----------------------|
______________________________________________
Guitar 1 (2x)
e|---------------------------------------------------------------------|
b|---------------------------------------------------------------------|
g|---------------------------------------------------------------------|
d|---------------------------------------------------------------------|
a|-7-7-7-7-8-8-8-8-10-10-10-10-8-8-8-8-7-7-7-7-8-8-8-8-5-5-5-5-5-5-5-5-|
e|-5-5-5-5-6-6-6-6-8--8--8--8--6-6-6-6-5-5-5-5-6-6-6-6-3-3-3-3-3-3-3-3-|
______________________________________________
Guitar 1 (4x)
e|-----------------------------------------------------------------------|
b|-----------------------------------------------------------------------|
g|-12~-11~-9~-9--11--12--------------------------------------------------|
d|-x---x---x--x--x---x---------------------------------------------------|
a|-10~-9~--7~-7--9---10--10-10-10-10-10-10-10-10-10-10-10-10-10-10-10-10-|
e|-----------------------8--8--8--8--8--8--8--8--8--8--8--8--8--8--8--8--|

Guitar 2 (4x)
e|----12----10-h12-12----12----10-h12-12-|
b|-12----12-----------12----12-----------|
g|---------------------------------------|
d|---------------------------------------|
a|---------------------------------------|
e|---------------------------------------|

e|----12----10----------------------------------------12~-10~-|
b|-12----12----12-10-12----10-----------------13~-12~---------|
g|----------------------12----11-12-9-11----9-----------------|
d|---------------------------------------12-------------------|
a|------------------------------------------------------------|
e|------------------------------------------------------------|
______________________________________________
Guitar 1 (rest of the song)
e|---------------------------------|
b|---------------------------------|
g|---------------------------------|
d|---------------------------------|
a|-2-2-2-2-2-2-2-2-2-2-2-2-2-2-2-2-|
e|-0-0-0-0-0-0-0-0-0-0-0-0-0-0-0-0-|

e|---------------------------------|
b|---------------------------------|
g|---------------------------------|
d|-7-7-7-7-7-7-7-7-7-7-7-7-7-7-7-7-|
a|-5-5-5-5-5-5-5-5-5-5-5-5-5-5-5-5-|
e|---------------------------------|

e|-----------------------------------------------------------------|
b|-----------------------------------------------------------------|
g|-----------------------------------------------------------------|
d|-5-5-5-5-5-5-5-5-5-5-5-5-5-5-5-5-5-5-5-5-5-5-5-5-5-5-5-5-5-5-5-5-|
a|-3-3-3-3-3-3-3-3-3-3-3-3-3-3-3-3-3-3-3-3-3-3-3-3-3-3-3-3-3-3-3-3-|
e|-----------------------------------------------------------------|

...you do the solo.

MANY THANKS TO THE PEOPLE AT THE CO&CA FORUMS


Coheed & Cambria albums
2005 Good Apollo I'm Burning Star IV, Vol. 1: From Fear Through the Eyes of Madness
2003 In Keeping Secrets of Silent Earth: 3
2002 The Second Stage Turbine Blade
In Keeping Secrets of Silent Earth: 3 tabs
01The Ring in Return tabbass tab
02In Keeping Secrets of Silent Earth: 3 tabbass tab
03Cuts Marked in the March of Men tabbass tab
04Three Evils (Embodied in Love and Shadow) tabbass tab
05The Crowing tabbass tab
06Blood Red Summer tabbass tab
07The Velourium Camper I: Faint of Hearts tabbass tab
08The Velourium Camper II: Backend of Forever tabbass tab
10A Favor House Atlantic tabbass tab
11The Light & the Glass tabbass tab

 

1