Search tabs:
Browse artists: 0-9 | A | B | C | D | E | F | G | H | I | J | K | L | M | N | O | P | Q | R | S | T | U | V | W | X | Y | Z
/ The Counting Crows / Hard Candy (2002) / Good Time guitar tab

Good Time
Counting Crows

Any Questions Email digburyme666@hotmail.com

Standard Tuning

Intro:
Dm    F    Dm    F

0:14 Secs
e:------------
B:-------8-6-
G:-5-/-7-----
D:-----------
A:---------
E:---------

Verse 1:
Dm                             C
  The gentle man caller in the blue suede shoes
              Gm                                 F
He don't know what to do - he just wants to look good for you
Dm                                    C
  So he rushes in to tell you what he did today,
                      Gm                                 F
But he can't think of what to say. I think you'll listen anyway


Chorus 1:
Gm       Bb                   F         C               Gm
           He wants to have a good time just like everybody
         Bb                   F          C
           He doesn't want to fall apart

Verse 2:
Dm                                  C
  You watch him as he stutters over what to say
                   Gm                                F
It's just a little game you play. It's no easier for you some days

1:18 Secs
E:------------------------------------|
B:------------------------------------|
G:------------------------------------|
D:------------------------------------|
A:------------------------------------|
E:-5-8-5-8-10\------------------------|

Dm                                        C
   You wish that you could tell him it'll be okay

1:26 Secs
e:---------------|
B:---------------|
G:---5-(7/)-9-5--|
D:-7-------------|
A:---------------|
E:---------------|

Gm                             F
But you feel a little shy these days cause everybody goes away

Chorus 2:
Gm       Bb                      F         C
Oh         You just wanna have a good time just like everybody
Gm       Bb                         F              C
else       You don't wanna to fall apart this time

Solo
  1:53          2:03                    2:11     2:14
e:---------------------------------------------------------------------|
B:-------6vvv---8b10vvv--8b10r8-6-------6vv\---------6-8---8-(b10)-6---|
G:-/7vvv--------------------------7vvv-----------5-7-----------------7-|
D:---------------------------------------------------------------------|
A:---------------------------------------------------------------------|
E:---------------------------------------------------------------------|
   2:18
e:----------------------------------|
B:----------------------------------|
G:----------------------------------|
D:-3vv-h-5-3-h-5-3-h-5-3-h-5brbrbr--|
A:----------------------------------|
E:----------------------------------|

Verse 3:
Dm                                      C
  I can look into your eyes and see the mess we're in
                      Gm
Well, darling if it's *** came out
                         F
Then I suppose that it's *** went in

2:39 Secs
e:------------------------|
B:------------------------|
G:------------------------|
D:------------------------|
A:------------------------|
E:-13-12-8-5-10\----------|

Dm                                                C
  Even though I couldn't say I've been the places that you've been

2:39                     2:46
e:-----------------------|
B:-----------------------|
G:-----5-(7/)-9-7-5------|
D:---7-------------------|
A:-----------------------|
E:-----------------------|

Gm                                   F
You know he made my heart real strong even if he made my head real thin

Chorus 3:
Gm    Bb                  F         C               Gm
         I want to have a good time just like everybody
      Bb                   F           C
         And I don't wanna fall apart
   Gm    Bb                F         C                   Gm    Bb
Oh...       I wanna have a good time just like everybody else
                        F                           C                Gm
And I don't wanna fall apart this time so would you please invite me in


Outro Chorus:
Gm   Bb                   F
        I really love the red haired girls
     C                    Gm
I'm just another boy from Texas
Bb                         F         C                 Gm
   Come on and take a spin   I got a brand new set of wings

Gm   Bb                   F
        I really love the red haired girls
     C                    Gm
I'm just another boy from Texas

3:53 Secs
e:-8-6-5-----------------------------------|
B:-------8-6-------------------------------|
G:-----------------------------------------|
D:-play around with these notes at the end-|
A:-----------------------------------------|
E:-----------------------------------------|

Bb                         F         C                 Gm
   Come on and take a spin   I got a brand new set of wings

Gm   Bb                   F
Man    I sure do love the red haired girls
     C                    Gm
I'm just all boy from Texas
Bb                         F                       C                 Gm
   Come on and take a spin hey little girl I got a brand new set of wings

  Bb
e|-2-|
B|-0-|
G|-1-|
D|-1-| Wrote down this chord it only one out of song some people dont know.
A|-2-|
E|---|


The Counting Crows albums
2004 Films About Ghosts: The Best Of...
2002 Hard Candy
1999 This Desert Life
1998 Across a Wire: Live in New York
1996 Recovering the Satellites
1993 August and Everything After
Hard Candy tabs
02American Girls tabbass tab
03Good Time tabbass tab
07Miami tabbass tab
09Carriage tabbass tab
10Black and Blue tabbass tab

 

1