Search tabs:
Browse artists: 0-9 | A | B | C | D | E | F | G | H | I | J | K | L | M | N | O | P | Q | R | S | T | U | V | W | X | Y | Z
/ / / guitar tab

TITLE-Run Through The Jungle
ARTIST-Creedence Clearwater Revival
ALBUM-Chronicles Volume 1

INTRO-

Slide is used from 12th fret all the way down(just example) and made nastily to get that unique sound.

ENTIRE SONG-

e----------------------------------------------------|
b--1-------3--1--------------------------------------|
g-----2----------1--0--------------------------------|
d----------------------3--0-------0------------------|
a----------------------------0--3--------------------|
E----------------------------------------------------|

e----------------------------------------------------|
b--1--------3---3--7--3------------------------------|
g------2---------------------------------------------|
d---------------------------------0------------------|
a---------------------------0--3---------------------|
E----------------------------------------------------|

e----------------------------------------------------|
b--1-------3--1--------------------------------------|
g-----2----------1--0--------------------------------|
d----------------------3--0-------0------------------|
a----------------------------0--3--------------------|
E----------------------------------------------------|

e----------------------------------------------------|
b--1--3--3--7--7--3--3-------------------------------|
g----------------------------------------------------|
d-----------------------------0----------------------|
a-----------------------0--3-------------------------|
E----------------------------------------------------|

That plays throughout the entire song, except for the end which I cannot transcribe.

Any questions or comments are welcomed and appreciated, contact me at maddmanmal@hotmail.com. Peace!


albums
tabs

 

1