Search tabs:
Browse artists: 0-9 | A | B | C | D | E | F | G | H | I | J | K | L | M | N | O | P | Q | R | S | T | U | V | W | X | Y | Z
/ Dark Angel / Darkness Descends (1986) / The Burning Of Sodom guitar tab

DARK ANGEL - THE BURNING OF SODOM
(Darness Descends, 1986)

Key
= after note = vibrato
^ after note = heavy vibrato
\ = slide down
/ = slide up
+ = tap
h = hammer
p = pull
n = natural harmonic
s = pinching harmonic (squeal)
* = tremolo pick
t = trill
b = bend
|-3-| = triplet

n number above the tab = play the first part then the first finishing part
			 play the first part a second time and then play the second finishing part
			 etc.

Tune Down 1/4 Step

Riff 1

E ---------------------------------------------
B ---------------------------------------------
G ---------------------------------------------
D ---------------------------------------------
A -------54-2-------------------54-2-------4---
E -22-22------22-22-22-22-22-22------22-22---2-

Riff 2

E --------------------------------------------------------------------------
B --------------------------------------------------------------------------
G --------------------------------------------------------------------------
D -------------------------------4--5--------------------------------5-4-3--
A -------------------------------4--5--------------------------------5-4-3--
E -00-00-00-00-3-0-00-00-5-3-0-0-2--3--00-00-00-00-3-0-00-00-5-3-0-0-3-2-1--

Riff 2A

E ------------------------------------------------------------------------------------
B ------------------------------------------------------------------------------------
G ------------------------------------------------------------------------------------
D ------------------------------------5--7-------------------------------------5-7-8--
A ------------------------------------5--7-------------------------------------5-7-8--
E -00-00-00-00-3-00-00-00-00-00-00-00-3--5--00-00-00-00-3-00-00-00-00-00-00-00-3-5-6--

Riff 3

E ----------------------------------------------
B ----------------------------------------------
G ----------------------------------------------
D ----------------------------------------------
A -------------------------------------------4--
E -22-22-22-22-22-22-22-22-22-22-22-22-22-22----

Riff 3A

E ------------------------------------------------
B ------------------------------------------------
G ------------------------------------------------
D ----------------------------------------------2-
A -------------------------------------------4--2-
E -22-22-22-22-22-22-22-22-22-22-22-22-22-22----0-

Riff 4

E --------------------------------------------------------------------------
B --------------------------------------------------------------------------
G ----------------------------------8---------------------------------------
D -------3--------5--------7--------8--------3--------5--------7--------8-7-
A -------3--------5--------7--------6--------3--------5--------7--------8-7-
E -0-0-0-1--0-0-0-3--0-0-0-5--0-0-0----0-0-0-1--0-0-0-3--0-0-0-5--0-0-0-6-5-
   |-3-|    |-3-|    |-3-|    |-3-|    |-3-|    |-3-|    |-3-|    |-3-|

Riff 5

E ------------------------------------------------------------------------------
B ------------------------------------------------------------------------------
G ------------------------------------------------------------------------------
D -------4--------------------------5--4------4--------------------------5-4-3--
A -------4--------------------------5--4------4--------------------------5-4-3--
E -00-00-2--00-00-00-00-00-00-00-00-3--2--0-0-2--00-00-00-00-00-00-00-00-3-2-1--

Order

Riff 1 x 4
Riff 2 x 4
Riff 2A x 2
Riff 2 x 2
Riff 2A x 2
Riff 2 x 2
Riff 3 x 4
Riff 2 x 4
Riff 2A x 2
Riff 2 x 4
Riff 3 x 4
Riff 4 x 2
Solo over Riff 3 x 4
Solo over Riff 4 x 2
Solo over Riff 3 x 4
Solo over Riff 4 x 2
Riff 5 x 4
Riff 2 x 4
Riff 2A x 2
Riff 2 x 2
Riff 3 x 7
Riff 3A x 1

Tabbed by Radiohater 2003


Dark Angel albums
1991 Time Does Not Heal
1986 Darkness Descends
1984 We Have Arrived
Darkness Descends tabs
01Darkness Descends tabbass tab
02The Burning Of Sodom tabbass tab
04Merciless Death tabbass tab
06Black Prophecies tabbass tab
07Perish In Flames tabbass tab

 

1