Search tabs:
Browse artists: 0-9 | A | B | C | D | E | F | G | H | I | J | K | L | M | N | O | P | Q | R | S | T | U | V | W | X | Y | Z
/ Dark Angel / Darkness Descends (1986) / Perish In Flames guitar tab

DARK ANGEL - PERISH IN FLAMES
(Darkness Descends, 1986)

Key
= after note = vibrato
^ after note = heavy vibrato
\ = slide down
/ = slide up
+ = tap
h = hammer
p = pull
n = natural harmonic
s = pinching harmonic (squeal)
* = tremolo pick
t = trill
b = bend
|-3-| = triplet

n number above the tab = play the first part then the first finishing part
			 play the first part a second time and then play the second finishing part
			 etc.

Tune Down 1/4 Step

Riff 1

E -----------------------------------------------------------------
B -----------------------------------------------------------------
G -----------------------------------------------------------------
D -----------------------------------------------------------------
A ---------7-8-7-8---------6-7-6-7---------------------------------
E -0-0-0-0---------0-0-0-0---------0-0-0-0-0-0-0-0-0-0-0-0-0-0-0-0-

Riff 2

E -------------------------------------------------------
B -------------------------------------------------------
G -9-------8-------7-------------------------------------
D -9---9---8---8---7--7----------------------------------
A -7---9---6---8---5--7----------------------------------
E -----7-------6------5--0-0-0-0-0-0-0-0-0-0-0-0-0-0-0-0-

Riff 2A

E -------------------------------------------------------
B -------------------------------------------------------
G -7-------6-------5-------------------------------------
D -7---7---6---6---5--5----------------------------------
A -5---7---4---6---3--5----------------------------------
E -----5-------4------3--0-0-0-0-0-0-0-0-0-0-0-0-0-0-0-0-

Riff 2B

E --------------------------------------------------------------
B --------------------------------------------------------------
G -9-------8-------7-----7-------6-------5----------------------
D -9---9---8---8---7--7--7---7---6---6---5--5--2----------------
A -7---9---6---8---5--7--5---7---4---6---3--5--2----------------
E -----7-------6------5------5-------4------3--0----------------

Riff 3

E ----------------------------------------------------------------------------------------
B ----------------------------------------------------------------------------------------
G -9--------------------9-10-------------------4--------------------4-------5-------12-11-
D -9--------------------9-10-------------------4--------------------4-------5-------12-11-
A -7--------------------7-8 -------------------2--------------------2-------3-------10-9 -
E ----00-00-00-00-00-00------00-00-00-00-00-00----00-00-00-00-00-00---00-00---00-00-------

Riff 3A

E ----------------------------------------------------------------------------------
B ----------------------------------------------------------------------------------
G -9--------------------9-10-------------------9--------------------8-9---9-----10--
D -9--------------------9-10-------------------9--------------------8-9---9-----10--
A -7--------------------7-8 -------------------7--------------------6-7---7-----8 --
E ----00-00-00-00-00-00------00-00-00-00-00-00----00-00-00-00-00-00-----0---0-0-----

Riff 4

E -----------------------------------------------------------------------------------------
B -----------------------------------------------------------------------------------------
G -------------------4-6-------------------7-6-------------------4-6-------------------8-6-
D -------------------4-6-------------------7-6-------------------4-6-------------------8-6-
A -44-44-44-44-44-44-2-4-44-44-44-44-44-44-5-4-44-44-44-44-44-44-2-4-44-44-44-44-44-44-6-4-
E -----------------------------------------------------------------------------------------

Riff 5

E -----------------------------------------------------------------------------------------
B -----------------------------------------------------------------------------------------
G -----------------------------------------------------------------------------------------
D -----------------------------------------------------------------------------------------
A -66-66-66-66-66-66-66-66-9-66-66-10-66-66-9--66-66-66-66-66-66-66-66-9-66-66-10-66-66-9--
E -----------------------------------------------------------------------------------------

E ---------------------------------------------------------------------------------
B ---------------------------------------------------------------------------------
G -------------------------------------5-4-------------------------------------5-4-
D -------------------------4-----5-----5-4-------------------------4-----5-----5-4-
A -------------------------4-----5-----3-2-------------------------4-----5-----3-2-
E -00-00-00-00-00-00-00-00-2-0-0-3-0-0-----00-00-00-00-00-00-00-00-2-0-0-3-0-0-----

Riff 5A

E -----------------------------------------------------------------------------------------
B -----------------------------------------------------------------------------------------
G -----------------------------------------------------------------------------------------
D -----------------------------------------------------------------------------------------
A -66-66-66-66-66-66-66-66-9-66-66-10-66-66-9--66-66-66-66-66-66-66-66-9-66-66-10-66-66-9--
E -----------------------------------------------------------------------------------------

E ------------------------------------------------------------------------------------------
B ------------------------------------------------------------------------------------------
G -------------------------------------5-4-------------------------------------5-4-4--------
D -------------------------4-----5-----5-4-------------------------4-----5-----5-4-4--------
A -------------------------4-----5-----3-2-------------------------4-----5-----3-2-2--------
E -00-00-00-00-00-00-00-00-2-0-0-3-0-0-----00-00-00-00-00-00-00-00-2-0-0-3-0-0--------------

Riff 5B

E -----------------------------------------------------------------------------------------
B -----------------------------------------------------------------------------------------
G -----------------------------------------------------------------------------------------
D -----------------------------------------------------------------------------------------
A -66-66-66-66-66-66-66-66-9-66-66-10-66-66-9--66-66-66-66-66-66-66-66-9-66-66-10-66-66-9--
E -----------------------------------------------------------------------------------------

E ---------------------------------------------------------------------------------
B ---------------------------------------------------------------------------------
G -------------------------------------5-4-------------------------------------5-4-
D -------------------------4-----5-----5-4-------------------------4-----5-----5-4-
A -------------------------4-----5-----3-2-------------------------4-----5-----3-2-
E -00-00-00-00-00-00-00-00-2-0-0-3-0-0-----00-00-00-00-00-00-00-00-2-0-0-3-0-0-----

E ------------------------------------------------------------------------------------------
B ------------------------------------------------------------------------------------------
G -------------------------------------5-4-------------------------------------5---4--------
D -------------------------4-----5-----5-4-------------------------4-----5-----5---4--------
A -------------------------4-----5-----3-2-------------------------4-----5-----3---2--------
E -00-00-00-00-00-00-00-00-2-0-0-3-0-0-----00-00-00-00-00-00-00-00-2-0-0-3-0-0---0----------

E -------------------------- ---
B -------------------------- ---
G -------------------------- ---
D -------------------------- -2-
A -----------------3-2------ -2-
E -0-1-2-0-1-2-0-1-----32-0- -0-

Riff 6

E -------------------------------------------------------------------------------------
B -------------------------------------------------------------------------------------
G -------------------------------------------------------------------------------------
D -------------------8--------------------3--------------------8--------------------4--
A -------------------8--------------------3--------------------8--------------------4--
E -33-33-33-33-33-33-6--33-33-33-33-33-33-1--33-33-33-33-33-33-6--33-33-33-33-33-33-2--

Riff 7

E -----------------------------------
B -----------------------------------
G -----------------------------------
D -/4--/4--/4--/4--/4--/4--/4--/3--2-
A -/4--/4--/4--/4--/4--/4--/4--/3--2-
E -/2--/2--/2--/2--/2--/2--/2--/1--0-

Riff 8

E ------------------------------------------------------------------------------------------------------------------------
B ------------------------------------------------------------------------------------------------------------------------
G ------------------------------------------------------------------------------------------------------------------------
D -2----------------------------2----------------------------2------------------------------------------------------------
A -2----------------------------2----------------------------2--------------------------0-3-0-0-0-2-0-0-0-3-0-0-0-2-0-0-0-
E -0----0-0-0-0-4-0-0-0-3-0-0-0-0----0-0-0-0-4-0-0-0-3-0-0-0-0----0-0-0-0-4-0-0-0-3-0-0-----------------------------------

Order

Riff 1 x 6
Riff 2 x 2
Riff 2A x 2
Riff 2B x 1
Riff 3 x 6
Riff 4 x 2
Riff 5 x 2
Riff 3 x 6
Riff 4 x 2
Riff 5 x 1
Riff 5A x 1
Solo over Riff 3A x 4
Solo over Riff 6 x 4
Solo over Riff 3A x 4
Solo over Riff 6 x 4
Riff 7 x 1
Riff 8 x 4
Riff 3 x 6
Riff 4 x 2
Riff 5 x 1
Riff 5B x 1

Tabbed by Radiohater 2003


Dark Angel albums
1991 Time Does Not Heal
1986 Darkness Descends
1984 We Have Arrived
Darkness Descends tabs
01Darkness Descends tabbass tab
02The Burning Of Sodom tabbass tab
04Merciless Death tabbass tab
06Black Prophecies tabbass tab
07Perish In Flames tabbass tab

 

1