Search tabs:
Browse artists: 0-9 | A | B | C | D | E | F | G | H | I | J | K | L | M | N | O | P | Q | R | S | T | U | V | W | X | Y | Z
/ Dark Angel / We Have Arrived (1984) / Hells on Its Knees guitar tab

Song: Hell's On It's Knees
Album: We Have Arrived

Fig. 1 x2
e|----------0--------|----------0--------|----------0--------|----------0--------|
B|------0-----0------|------0-----0------|------0-----0------|------0-----0------|
G|----5---5-----5----|----4---4-----4----|----2---2-----2----|----1---1-----1----|
D|--7-------------7--|--5-------------5--|--3-------------3--|--2-------------2--|
A|-------------------|-------------------|-------------------|-------------------|
E|-------------------|-------------------|-------------------|-------------------|

e|----------0--------|----------0--------|----------0--------|----------0--------|
B|------0-----0------|------0-----0------|------0-----0------|------0-----0------|
G|----5---5-----5----|----4---4-----4----|----2---2-----2----|----1---1-----1----|
D|--7-------------7--|--5-------------5--|--3-------------3--|--2-------------2--|
A|-------------------|-------------------|-------------------|-------------------|
E|-------------------|-------------------|-------------------|-------------------|

e|----------0--------|----------0--------|----------0--------|--0--|
B|------3-----3------|------3-----3------|------3-----3------|--0--|
G|----2---2-----2----|----1---1-----1----|----2---2-----2----|--1--|
D|--3-------------3--|--2-------------2--|--3-------------3--|--2--|
A|-------------------|-------------------|-------------------|-----|
E|-------------------|-------------------|-------------------|-----|

            TIME- 0:50

Fig. 2A x2
e|----------0--------|-------------------|-------------------|--------------------|
B|------0-----0------|----------0--------|----------0--------|--------------------|
G|----0---0-----0----|------0-----0------|------0-----0------|--------0--------0--|
D|--2-------------2--|----2---2-----2----|----1---1-----1----|------0--------0----|
A|-------------------|--3-------------3--|--2-------------2--|----2--------1------|
E|-------------------|-------------------|-------------------|--3--------2--------|

e|-------------------|-------------------|
B|-------------------|-------------------|
G|----------0--------|----------0--------|
D|------2-----2------|------2-----2------|
A|----2---2-----2----|----2---2-----2----|
E|--0-------------0--|--0-------------0--|

Fig. 2B x1
e|----------0--------|-------------------|-------------------|--------------------|
B|------0-----0------|----------0--------|----------0--------|--------------------|
G|----0---0-----0----|------0-----0------|------0-----0------|--------0--------0--|
D|--2-------------2--|----2---2-----2----|----1---1-----1----|------0--------0----|
A|-------------------|--3-------------3--|--2-------------2--|----2--------1------|
E|-------------------|-------------------|-------------------|--3--------2--------|

            TIME- 1:28

Fill 1 x1
e|-----|
B|-----|
G|--9--|
D|--9--|
A|--7--|
E|--0--|

Riff 1 x8
e|--------------------------------|
B|--------------------------------|
G|--------------------------------|
D|-------7------7------7--9--8-8--|
A|--0000-5-0000-5-0000-5--7--6-6--|
E|--------------------------------|

Fig. 3 x1
e|-----|-----|-----|-----|---------|-----|-----|-----|-----|
B|-----|-----|-----|-----|---------|-----|-----|-----|-----|
G|--9--|--5--|--7--|--4--|---------|--9--|--5--|-----|--7--|
D|--9--|--5--|--7--|--4--|---------|--9--|--5--|--7--|--7--|
A|--7--|--3--|--5--|--2--|--3-2----|--7--|--3--|--7--|--5--|
E|-----|-----|-----|-----|------3--|-----|-----|--5--|-----|

            TIME- 2:02

Riff 1 x4
e|--------------------------------|
B|--------------------------------|
G|--------------------------------|
D|-------7------7------7--9--8-8--|
A|--0000-5-0000-5-0000-5--7--6-6--|
E|--------------------------------|

Fig. 3 x1
e|-----|-----|-----|-----|---------|-----|-----|-----|-----|
B|-----|-----|-----|-----|---------|-----|-----|-----|-----|
G|--9--|--5--|--7--|--4--|---------|--9--|--5--|-----|--7--|
D|--9--|--5--|--7--|--4--|---------|--9--|--5--|--7--|--7--|
A|--7--|--3--|--5--|--2--|--3-2----|--7--|--3--|--7--|--5--|
E|-----|-----|-----|-----|------3--|-----|-----|--5--|-----|

            TIME- 2:21

Riff 2 x4
e|-------------------------------|
B|-------------------------------|
G|-------------------------------|
D|-------7------8------7------5--|
A|--0000-5-0000-6-0000-5-0000-3--|
E|-------------------------------|

Riff 1 x4 (under solo)
e|--------------------------------|
B|--------------------------------|
G|--------------------------------|
D|-------7------7------7--9--8-8--|
A|--0000-5-0000-5-0000-5--7--6-6--|
E|--------------------------------|

Fig. 3 x2 (under solo)
e|-----|-----|-----|-----|---------|-----|-----|-----|-----|
B|-----|-----|-----|-----|---------|-----|-----|-----|-----|
G|--9--|--5--|--7--|--4--|---------|--9--|--5--|-----|--7--|
D|--9--|--5--|--7--|--4--|---------|--9--|--5--|--7--|--7--|
A|--7--|--3--|--5--|--2--|--3-2----|--7--|--3--|--7--|--5--|
E|-----|-----|-----|-----|------3--|-----|-----|--5--|-----|

            TIME- 3:00

Riff 1 x4 (under solo)
e|--------------------------------|
B|--------------------------------|
G|--------------------------------|
D|-------7------7------7--9--8-8--|
A|--0000-5-0000-5-0000-5--7--6-6--|
E|--------------------------------|

Fig. 3 x2 (under solo)
e|-----|-----|-----|-----|---------|-----|-----|-----|-----|
B|-----|-----|-----|-----|---------|-----|-----|-----|-----|
G|--9--|--5--|--7--|--4--|---------|--9--|--5--|-----|--7--|
D|--9--|--5--|--7--|--4--|---------|--9--|--5--|--7--|--7--|
A|--7--|--3--|--5--|--2--|--3-2----|--7--|--3--|--7--|--5--|
E|-----|-----|-----|-----|------3--|-----|-----|--5--|-----|

            TIME- 3:29

Riff 1 x4
e|--------------------------------|
B|--------------------------------|
G|--------------------------------|
D|-------7------7------7--9--8-8--|
A|--0000-5-0000-5-0000-5--7--6-6--|
E|--------------------------------|

Fig. 3 x2
e|-----|-----|-----|-----|---------|-----|-----|-----|-----|
B|-----|-----|-----|-----|---------|-----|-----|-----|-----|
G|--9--|--5--|--7--|--4--|---------|--9--|--5--|-----|--7--|
D|--9--|--5--|--7--|--4--|---------|--9--|--5--|--7--|--7--|
A|--7--|--3--|--5--|--2--|--3-2----|--7--|--3--|--7--|--5--|
E|-----|-----|-----|-----|------3--|-----|-----|--5--|-----|

            TIME- 3:58

Riff 1 x4
e|--------------------------------|
B|--------------------------------|
G|--------------------------------|
D|-------7------7------7--9--8-8--|
A|--0000-5-0000-5-0000-5--7--6-6--|
E|--------------------------------|

End x1
e|-----------------------|
B|-----------------------|
G|-----------------------|
D|--9-8-8-9-8-8-9-8-8----|
A|--7-6-6-7-6-6-7-6-6-7--|
E|--------------------5--|

            TIME- 4:11----------7-6--|
E|--0-0-0-000-000-0-5-4--|--0-0-000-000-5-4--|

End x1
e|---------|
B|---------|
G|---------|
D|----7-6--|
A|--2-7-6--|
E|--0-5-4--|

e-mail: iron_maiden_rules666@hotmail.com


Dark Angel albums
1991 Time Does Not Heal
1986 Darkness Descends
1984 We Have Arrived
We Have Arrived tabs
02Merciless Death tabbass tab
05No Tomorrow tabbass tab
06Hells on Its Knees tabbass tab

 

1