Search tabs:
Browse artists: 0-9 | A | B | C | D | E | F | G | H | I | J | K | L | M | N | O | P | Q | R | S | T | U | V | W | X | Y | Z
/ / / guitar tab

----------------------------------
Satellite
----------------------------------
Transcribed by:
Sean Spicer (driver8@phy.duke.edu)
----------------------------------
Opening riff and Verses:

e----------------------------------------|
B----------------------------------------|
G----------------------------------------|
D-------8-----6----5----3-------6--------|
A----6-----4----3-----------4-------3----|
E-4-------------------6------------------|

NOTE:  Here is a another version of the verse which was sent in by
       Mike (EGRLax31@aol.com)

        e -------------------------------------
        B -------------------------------------
        G -------------------------------------
        D -------8----6----4------------6-----
        A ----6----4--------------8--4--------
        E -4-------------8----6-------------8-

       Here's yet another way to play the verse, sent in by Joey Benton:

	e-----------------------------------------|
	B----------------------------------------|
	G----------------------------------------|
	D-------8-----6----5-----------6--------|
	A----6-----4----3------8---4-------3----|
	E-4-------------------6------------------|


Chorus:  Ab   Db   Bbmin   Eb

e--4-------4-------
B--4-------4-------
G--5--6/8--6----6--
D--6--6/8--6----6--
A--6-------4----x--
E--4-------4----6--

Lead in to Bridge

e---------------------------------------|
B---------------------------------------|
G---------------------------------------|
D----------------------------(3)--(5)---|
A--------------3----4-----6-------------|
E-----4---6-----------------------------|

Bridge:

Ab   Cmin   Db   Eb

e--4--3--4--
B--4--3--4--
G--5--5--6--
D--6--5--6--
A--6--3--4--
E--4--3--4--


That's all folks.


albums
tabs

 

1