Search tabs:
Browse artists: 0-9 | A | B | C | D | E | F | G | H | I | J | K | L | M | N | O | P | Q | R | S | T | U | V | W | X | Y | Z
/ Days Of The New / Days of the New (1997) / Shelf in the Room guitar tab

Tuning: Db-Ab-Db-Gb-Bb-Db

-----------------------------------|
-----------------------------------|
---2-----2-------4-----4---5^4---4-|     Part 'A'
-----0-----0-------0---------------|
-----------------------------------|
-0-----3-----3/5-----5---5-----5---|


-----------------------------------|
-----------------------------------|
---2-----2-------4-----------------|
-----0-----0-------0---0-----0---0-|     Part 'B'
-----------------------------------|
-0-----3-----3/5-----5---5-5---3---|

--------0--------------------------|
--3------3-----0-------------------|
----2-------------4----4----5^4---4|	Part 'B(b)'
--------------------------------0--|
-----------------------------------|
-0-----3----3/5-----5-----5--------|


-----------------------------------|
-3-----3---3---0-------------------|
-2-----2---2---4-------------------|
-0-----0---0---0-------------0---0-|     Part 'C'
-0-----0---0---5-------------------|
-0-----3---3---5-----5-5-5-5---3---|


-----------------------------------|
-----------------------------------|
---2---5-------4-----4-----4---4---|     Part 'D'
-0---0---0-0-0---0-0---0-0---0-----|
-----------------------------------|
-----------------------------------|


-------------------5-----5---5-----|
-2-----2---2---0---0-----0---0-----|
-3-----3---3---4---4-----4---4-----|     'CHORDS'
-0-----0---0---0---0-----0---0-----|
-0-----0---0---5---5-----5---5-----|
-0-----3---3---5---5-----5---5-----|


Order:

   A A A B       Intro
   Bb Bb Bb C      "
   A A A B       Verse
   D D D C       Chorus

 (-B B A B       Verse
 ( A A A C         "
 ( CHORDS        Chorus
 ( CHORDS          "
 ( D D D D       Break
 (-A B A C

 (-B B A B       Verse
 ( A A A C         "
 ( CHORDS        Chorus
 ( CHORDS          "
 ( CHORDS        Solo
 ( D D D D       Break
 (-A B A C       Verse

   A A A         Outro

I separated the parts above to show how the song's parts are arranged.
If you look, you will notice that the middle two sections are the same.
Also, the music under the first verse and chorus is NOT the same as the
rest of the verses and choruses.  Very very sneaky!!! :) (And he almost
got away with it!!!)

Enjoy! :)!

P.S.  If you want to tune your guitar to Db-Ab-Db-Gb-Bb-Db,
then one of the chords would be played (550407) instead of (550405).

Also, for part 'D', there are some different things you can play that
still fit.  Here's my favorite:

-----------------------------------|
-----------------------------------|
---2---5---2-4-------4---5-4---4---|
-0---0---0-----0-0-0---0-----0-----|
-----------------------------------|
-----------------------------------|

SOLO:

-------------|------------|--------|---------------|---------|
-------------|------------|--------|---------------|---------|
-----------5-|------------|--------|---------------|---------|
------3-5/7--|----3-5/7-5-|-3p0-3--|-3p0-----------|-3/5-3-0-|
--3-5--------|-3-5--------|------5-|----3p0--------|---------|
-------------|------------|--------|-------3/5-3-0-|---------|

-------|------------------|-------------------------|---------------------------|
-10-10-|-10/--5h6---5h6---|-------------------------|-10-10-10-12~--------------|
-10-10-|-10/--5--7--5---7-|-7-7p5---5---------------|-10-10-10-12~-10-10h12-10--|
-------|------------------|-------7---7-3-5-3-3h5-3-|-------------------------10|
-------|------------------|-------------------------|---------------------------|
-------|------------------|-------------------------|---------------------------|


Days Of The New albums
2001 Days of the New III
1999 Days of the New II
1997 Days of the New
Days of the New tabs
01Shelf in the Room tabbass tab
02Touch, Peel and Stand tabbass tab
03Face of the Earth tabbass tab
04Solitude tabbass tab
06What's Left for Me? tabbass tab
07Freak tabbass tab
08Now tabbass tab
09Whimsical tabbass tab
10Where I Stand tabbass tab
11How Do You Know You? tabbass tab

 

1