Search tabs:
Browse artists: 0-9 | A | B | C | D | E | F | G | H | I | J | K | L | M | N | O | P | Q | R | S | T | U | V | W | X | Y | Z
/ Death Cab for Cutie / The Photo Album (2001) / We Laugh Indoors guitar tab

Death Cab for Cutie
We Laugh Indoors
Album - The Photo Album
Tabbed by  Pablo Saravia

Well I just tried to figure out this songs cause I wanted to learn it but I could find it in any website so I just tried to tab it out and this is what I got. Sorry if I made any mistakes but its my first tab. 

/ - slide
h - hammer on
p - pull off
b - bend
~ - let ring

E----------------------------------------------------
B----------------------------------------------------
G----------------------------------------------------
D-----9/11--7--9---12~ ------9/11--7--9--5~ --
A---------------------------------------------------- 
E-----------------------------------------------------

E----------------------------------------------------------------------------
B------------------------------------------------------5h7-5h7-5h7-5----5---
G-------------------------------------------------------------------------5----7-
D-----9/11--7--9---------------------9/11--7--9--5---------------------------
A-------------------12-10---12-10---------------------------------------------
E--------------------------14----------------------------------------------------

E------------------------------------------------------
B-------------------------------------------------------
G------------------------------------------------------
D-----9/11--7--9---12~ ------9/11--7--9--5~ ----
A------------------------------------------------------
E-------------------------------------------------------

E-----------------------------------------------------------------------------
B------------------------------------------------------5h7-5h7-5h7-5----5----
G-------------------------------------------------------------------------5--7-
D-----9/11--7--9---------------------9/11--7--9--5---------------------------
A-------------------12-10---12-10---------------------------------------------
E--------------------------14-----------------------------------------------------

E----------------------------------------------------------------
B--99999-1111111111-77777-1111111111-99999-1111111111-7~-7~-7~-7~
G--99999-1111111111-77777-1111111111-99999-1111111111-7~-7~-7~-7~
D--99999-1111111111-77777-1111111111-99999-1111111111-7~-7~-7~-7~
A----------------------------------------------------------------
E----------------------------------------------------------------

Repeat 4x
E------------------------------------------------------------
B------------------------7b---------------------------7b----
G------------------------7b---------------------------7b----
D--7\5-4p5--7\5-4p5----------7\5-4h5--7\5-4h5--------
A-------------------------------------------------------------
E-------------------------------------------------------------

E--------------------------------------------------------------
B-----------------------7b-------------------------7b-777--
G-----------------------7b-------------------------7b-777--
D--7\5-4p5--7\5-4p5-----------7\5-4p5--7\5--4p5------------
A-------------------------------------------------------------
E-------------------------------------------------------------

E-----------------------------------------------------
B-----------------------------------------------------
G-----------------------------------------------------
D-----9/11--7--9---12~ ------9/11--7--9--5~ ---
A-----------------------------------------------------
E-----------------------------------------------------

Any questions, concerns,  error please e-mail me at TheSameIllusion@aol.com


Death Cab for Cutie albums
2005 Plans
2003 Transatlanticism
2002 You Can Play These Songs With Chords
2001 The Photo Album
2000 Forbidden Love [EP]
2000 We Have the Facts and We're Voting Yes
1999 Something About Airplanes
The Photo Album tabs
01Steadier Footing tabbass tab
02A Movie Script Ending tabbass tab
03We Laugh Indoors tabbass tab
06Blacking Out the Friction tabbass tab
07I Was a Kaleidoscope tabbass tab
08Styrofoam Plates tabbass tab
09Coney Island tabbass tab

 

1