Search tabs:
Browse artists: 0-9 | A | B | C | D | E | F | G | H | I | J | K | L | M | N | O | P | Q | R | S | T | U | V | W | X | Y | Z
/ Death Cab for Cutie / Transatlanticism (2003) / Death of an Interior Decorator guitar tab

Death of an Interior Decorator
Death Cab For Cutie
Transatlanticism

Standard Tuning 

tabbed by: Joshua Anderson, Richmond, VA
questions:andersonjn@vcu.edu

this is my first tab... i really hope that its right but my fingers are raw from writing it
ummm...please feel free to email me if you have any corrections, cause i think that its pretty right
this is the only version of this song online, anywhere, eventually i gave up and did it myself
so enjoy this great song by a great band...

guitar 1 <0:04>
e-1---------661--
B-1---------661--
G-3---------883-- x6
D-3-----3p0-883--
A-1---5-----661--
E---33-3---------



guitar 2 <0:35>
e------------------------------
B-6-6-6-8-10-8-4-4-4-6-6-6-6---
G--7-7-7-7--7-7-7-7-7-7-7-7-7--x2
D------------------------------
A------------------------------
E------------------------------

e-1-5--
B-1-5--
G-1-7--
D-3-7--
A-3-5--
E-1----

guitar 1 <0:53>
e-1---------661--
B-1---------881--
G-3---------883-- x2
D-3-----3p0-663--
A-1---5-----661--
E---33-3---------


guitar 2 <0:53>
e------------------------------
B-6-6-6-8-10-8-4-4-4-6-6-6-6---
G--7-7-7-7--7-7-7-7-7-7-7-7-7--x2
D------------------------------
A------------------------------
E------------------------------

guitar 1 <1:08>
e-1-5-1---1-5-1
B-1-5-1-3-1-5-1
G-1-7-3-3-1-7-3x2
D-3-7-3-5-3-7-3
A-3-5-1-5-3-5-1
E-1-----3-1----

guitar 2 <1:12>
e--------------
B--------------
G--------------
D--------------x2
A---5-3-1------
E-33-3-3-------


guitar 1 <1:18>
e-1---------661--
B-1---------881--
G-3---------883-- x2
D-3-----3p0-663--
A-1---5-----661--
E---33-3---------


guitar 2 <1:18>
e------------------------------
B-6-6-6-8-10-8-4-4-4-6-6-6-6---
G--7-7-7-7--7-7-7-7-7-7-7-7-7--x2
D------------------------------
A------------------------------
E------------------------------


guitars 1 <1:34>- i love this part
e----------------------------
B-1--3--6--10----1--6--3--6--
G--3--5--7---10---3--7--5--8-x5
D---3--5--7----10--3--7--5--8
A-1--3--5--8-----1--5--3--6--
E----------------------------

guitars 2 <1:34>
e------------------------------
B------------------------------
G-333555777101010-333777555888-x5
D------------------------------
A------------------------------
E------------------------------

guitar 1&2 <2:04>
e-3-1---1--
B-3-1-5-1--
G-5-3-5-3--x2
D-5-3-7-3--
A-3-1-7-1--
E-----5----

guitar 1 <2:21>
e-1---------661--
B-1---------881--
G-3---------883-- x2
D-3-----3p0-663--
A-1---5-----661--
E---33-3---------

guitar 2 <2:21>
e------------------------------
B-6-6-6-8-10-8-4-4-4-6-6-6-6---
G--7-7-7-7--7-7-7-7-7-7-7-7-7--x2
D------------------------------
A------------------------------
E------------------------------

guitar 1 <2:36>
e-1-5-1---1-5-1--
B-1-5-1-3-1-5-1--
G-1-7-3-3-1-7-3--x2
D-3-7-3-5-3-7-3--
A-3-5-1-5-3-5-1--
E-1-----3-1------

guitar 2 <2:40>
e-------------1--
B-------------1--
G-------------3--x2
D-------------3--
A---5-3-1-----1--
E-33-3-3---------

Yeah good times and enjoy, make sure that you get the rythym right cause it sounds so cool, and the majority of the coolness is the rythym... so enjoy

                                   -Josh


Death Cab for Cutie albums
2005 Plans
2003 Transatlanticism
2002 You Can Play These Songs With Chords
2001 The Photo Album
2000 Forbidden Love [EP]
2000 We Have the Facts and We're Voting Yes
1999 Something About Airplanes
Transatlanticism tabs
01The New Year tabbass tab
02Lightness tabbass tab
03Title and Registration tabbass tab
04Expo '86 tabbass tab
05The Sound of Settling tabbass tab
06Tiny Vessels tabbass tab
07Transatlanticism tabbass tab
08Passenger Seat tabbass tab
09Death of an Interior Decorator tabbass tab
10We Looked Like Giants tabbass tab
11A Lack of Color tabbass tab

 

1