Search tabs:
Browse artists: 0-9 | A | B | C | D | E | F | G | H | I | J | K | L | M | N | O | P | Q | R | S | T | U | V | W | X | Y | Z
/ Death Cab for Cutie / Transatlanticism (2003) / Title and Registration guitar tab

Band: Death Cab For Cutie 
Song: Title and Registration 

intro 
e|------------------------------------------------------0----- 
B|-----------0-2-0------------------0-2-0------------2----2-3- 
G|---2---2---------2---2----2---2---------2---2------2-------- 
D|-4---4---4---------4----2---2---2---------2----0-0---------- 
A|------------------------------------------------------------ 
E|------------------------------------------------------------ 

e|-----------------------------------------------------------| 
B|-2-0-------------------------------------------------------| 
G|-----2-----------------------------------------------------| 
D|-----------------------------------------------------------| 
A|-----------------------------------------------------------| 
E|-----------------------------------------------------------| 

0:47 
e|-----------------------------------------------------------| 
B|----------------------------3------------------------------| 
G|------2---2---2-------2---2-----2-------2---2---2----------| 
D|----4---4---4---4---4---4-----4---4---4---4---4---4--------| 
A|--0---------------2-----------------5----------------------| 
E|-----------------------------------------------------------| 

the parts are pretty much just repeated after this. 

2:33 - xylophone? solo 
e|----------------------------------------9------------------- 
B|--7-9-10---7-9-10-----7----7-9-10--7-10-------7----7-9-10--- 
G|------------------7-9---9-----------------7-9---9----------- 
D|------------------------------------------------------------ 
A|------------------------------------------------------------ 
E|------------------------------------------------------------ 

e|-------------------------7-9-------------------------------| 
B|--7-9-10-----7----7-9-10-----------------------------------| 
G|---------7-9---9-------------------------------------------| 
D|-----------------------------------------------------------| 
A|-----------------------------------------------------------| 
E|-----------------------------------------------------------|
 
 
prnstr4lf13


Death Cab for Cutie albums
2005 Plans
2003 Transatlanticism
2002 You Can Play These Songs With Chords
2001 The Photo Album
2000 Forbidden Love [EP]
2000 We Have the Facts and We're Voting Yes
1999 Something About Airplanes
Transatlanticism tabs
01The New Year tabbass tab
02Lightness tabbass tab
03Title and Registration tabbass tab
04Expo '86 tabbass tab
05The Sound of Settling tabbass tab
06Tiny Vessels tabbass tab
07Transatlanticism tabbass tab
08Passenger Seat tabbass tab
09Death of an Interior Decorator tabbass tab
10We Looked Like Giants tabbass tab
11A Lack of Color tabbass tab

 

1