Search tabs:
Browse artists: 0-9 | A | B | C | D | E | F | G | H | I | J | K | L | M | N | O | P | Q | R | S | T | U | V | W | X | Y | Z
/ / / guitar tab

Pour Some Sugar On Me
			  by Def Leppard



tabbed by jamesb@nevada.edu


intro:
----------------------------------------------------------
----------------------------------------------------------
----6-4---4--6vvvvv-4--4-6vvvv----6-4--4--6vvv-4--3vvvv---
--------6-------------------------------------------------
--4-----------------------------4-------------------------
----------------------------------------------------------

						    V- fade in with volume.
----------------------------------------------------4-----
----------------------------------------------------4-----
----6-4---4--6vvvvv-4--4-6vvvv----6-4----4--4---6---4-----
--------6-----------------------------6--4--4---6---4-----
--4-----------------------------4-------------------------
----------------------------------------------------------



verse

.. you're man..
-------------------------
-------------------------
-------------------------
-----6----6--------6--6--
-----4----4--------4--4--
-----------------6-------


repeat the above figure 8 times during verse. for second verse add this


--------	Flick the volume switch on and off while playing this.
--------	you'll need to hear the song to get te exact rhythem for the
----9---	switch. During the lyric "Sweet dream..." do not do the volume
----9---	switch trick, but do a slow dive w/ the bar.
--------
--------

	Then at " squeeze a little..." play this

 |------------------------------------------------------------------| palm mute
----------------------------------------------------------------------
----------------------------------------------------------------------
----------------------------------------------------------------------
----------------------------------------------------------------------
--4-4-4-4-4-4-4-4-4-4-4-4-4-4-4-4-4-4-4-4-4-4-4-4-4-4-4-4-4-4-4-4-4---
----------------------------------------------------------------------

chorus;

----------------------------------------------------------------------
----------------------------------------------------------------------
--------6----4vvvvvvvv---------6----6vvvvvvvv---------4----2vvvvvvv---
---4----6----4vvvvvvvv----4----6----6vvvvvvvv----2----4----2vvvvvvv---
---4----4----2vvvvvvvv----4----4----4vvvvvvvv----2----2----0vvvvvvv---
---2----------------------2----------------------0--------------------

			  |------------------------------| repeat 3 times
---------------------------------------------------------------------
---------------------------------------------------------------------
--------2----4vvvvvvv----------------2-2-----4-4-----4-4------4/6-6--
---2----2----4vvvvvvv--------2-2-----2-2-----4-4-----4-4------4/6-6--
---2----0----2vvvvvvv--------2-2-----0-0-----2-2-----2-2------2/4-4--
---2-------------------------0-0-------------------------------------


for second chorus, add:


-0-0-0-0-0-0-0-0-0-0-0-0-0-0-0-0-0-0-0-0-0-0-0-0-0-0-0-0-0-0-0-0-0-0-0----
-5-5-5-5-5-5-5-5-5-5-5-5-5-5-5-5-5-5-5-5-5-5-5-5-5-5-5-5-5-5-5-5-5-5-5----
--------------------------------------------------------------------------
--------------------------------------------------------------------------
--------------------------------------------------------------------------
--------------------------------------------------------------------------


after the second chorus, they're just using some noise made up of some
feedback, and lots of whammy bar on a touch harmonic on the fourth fret of
the A string.


solo:

  |-----|-- fade in w/ volume
------------------------------------------------------------------------------
------------------------------------------------------------------------------
--7-----7------7-7-6-6-7-7-6-7-7-7-6-6-7-7-6-6-7-7-6-6-7-7-6-7-7-7-6-6-7-7-6--
--7-----7---------------------------------------------------------------------
------------------------------------------------------------------------------
------------------------------------------------------------------------------


----------------------------------------------------------------------------
----------------------------------------------------------------------------
----------------------------------------------------------------------------
--2-2-------2-2--2----------------7-7-6-6-7-7-6-7-7-7-6-6-7-7-6-6-7-9-7-6-7-
--2-2-------2-2--2-------7--5--6--------------------------------------------
--0-0-------0-0--0---0------------------------------------------------------


		       |--------------------------------|-- repeat during"Do
							    take sugar?"
							|--- w/ bar
------------------------------------------------------------
------------------------------------------------------------
---6-7---7-6---6--------------------------------------------
-9-----9-----9---6-7-9-2--2---------------------------------
-----------------------2-----2--4--4--5---2--------5---7\---
-----------------------0------------------0--0-0-0---0------


end solo

-0-0-0-0-12-12-12-12-0-12-------------------------
----------------------------10-12-14-12-10-12-14--
-9-9-9-9-9--9--9--9--9-9--------------------------
--------------------------------------------------
--------------------------------------------------
--------------------------------------------------


------------------------------------------------------------------------------
--19(21)--19(21)--19(21)----17-19vvvvvv19vvvvv19vvv17--19--19(21)--17vvvv-
------------------------------------------------------------------------------
------------------------------------------------------------------------------
------------------------------------------------------------------------------
------------------------------------------------------------------------------


------------------------------------------------19-------------------------
--17(19)--17vvvv--17--19(21)-19vvvvv---17-17------17--17-17-17-17-17-17--
---------------------------------------------------------------------------
---------------------------------------------------------------------------
---------------------------------------------------------------------------
---------------------------------------------------------------------------


--19(21--19--19(21)vvvvvv-19(21)19--16--19vvv19vvv19vv19vvv19vvv19--
------------------------------------------------------------------------
------------------------------------------------------------------------
------------------------------------------------------------------------
------------------------------------------------------------------------
------------------------------------------------------------------------



--------------------
--------------------
---------2-2---4-4--
--2-2----2-2---4-4--
--2-2----0-0---2-2--
--0-0---------------



transcribed by Wolf Marshell


albums
tabs

 

1